ISO-10303-21;
HEADER;
/* Generated by software containing ST-Developer
 * from STEP Tools, Inc. (www.steptools.com) 
 */

FILE_DESCRIPTION(
/* description */ (''),
/* implementation_level */ '2;1');

FILE_NAME(
/* name */ 
'D:/E/projects/jgl/CNN/BRepNet/tests/test_data/simple_solids/two_num_e
lliptical.step',
/* time_stamp */ '2021-04-22T11:03:43+01:00',
/* author */ (''),
/* organization */ (''),
/* preprocessor_version */ 'ST-DEVELOPER v18.1',
/* originating_system */ 'Autodesk Translation Framework v10.6.0.1341',

/* authorisation */ '');

FILE_SCHEMA (('AUTOMOTIVE_DESIGN { 1 0 10303 214 3 1 1 }'));
ENDSEC;

DATA;
#10=MECHANICAL_DESIGN_GEOMETRIC_PRESENTATION_REPRESENTATION('',(#13),#242);
#11=SHAPE_REPRESENTATION_RELATIONSHIP('SRR','None',#249,#12);
#12=ADVANCED_BREP_SHAPE_REPRESENTATION('',(#14),#241);
#13=STYLED_ITEM('',(#258),#14);
#14=MANIFOLD_SOLID_BREP('Body1',#132);
#15=FACE_BOUND('',#38,.T.);
#16=PLANE('',#148);
#17=PLANE('',#149);
#18=PLANE('',#150);
#19=PLANE('',#151);
#20=PLANE('',#152);
#21=PLANE('',#153);
#22=PLANE('',#154);
#23=FACE_OUTER_BOUND('',#31,.T.);
#24=FACE_OUTER_BOUND('',#32,.T.);
#25=FACE_OUTER_BOUND('',#33,.T.);
#26=FACE_OUTER_BOUND('',#34,.T.);
#27=FACE_OUTER_BOUND('',#35,.T.);
#28=FACE_OUTER_BOUND('',#36,.T.);
#29=FACE_OUTER_BOUND('',#37,.T.);
#30=FACE_OUTER_BOUND('',#39,.T.);
#31=EDGE_LOOP('',(#93,#94,#95,#96));
#32=EDGE_LOOP('',(#97));
#33=EDGE_LOOP('',(#98,#99,#100,#101));
#34=EDGE_LOOP('',(#102,#103,#104,#105));
#35=EDGE_LOOP('',(#106,#107,#108,#109));
#36=EDGE_LOOP('',(#110,#111,#112,#113));
#37=EDGE_LOOP('',(#114,#115,#116,#117));
#38=EDGE_LOOP('',(#118));
#39=EDGE_LOOP('',(#119,#120,#121,#122));
#40=LINE('',#210,#53);
#41=LINE('',#216,#54);
#42=LINE('',#218,#55);
#43=LINE('',#220,#56);
#44=LINE('',#221,#57);
#45=LINE('',#224,#58);
#46=LINE('',#226,#59);
#47=LINE('',#227,#60);
#48=LINE('',#230,#61);
#49=LINE('',#232,#62);
#50=LINE('',#233,#63);
#51=LINE('',#235,#64);
#52=LINE('',#236,#65);
#53=VECTOR('',#159,39.8880667480469);
#54=VECTOR('',#166,10.);
#55=VECTOR('',#167,10.);
#56=VECTOR('',#168,10.);
#57=VECTOR('',#169,10.);
#58=VECTOR('',#172,10.);
#59=VECTOR('',#173,10.);
#60=VECTOR('',#174,10.);
#61=VECTOR('',#177,10.);
#62=VECTOR('',#178,10.);
#63=VECTOR('',#179,10.);
#64=VECTOR('',#182,10.);
#65=VECTOR('',#183,10.);
#66=ELLIPSE('',#146,39.8880667480469,14.9088290195438);
#67=ELLIPSE('',#147,39.8880667480469,14.9088290195438);
#68=VERTEX_POINT('',#207);
#69=VERTEX_POINT('',#209);
#70=VERTEX_POINT('',#214);
#71=VERTEX_POINT('',#215);
#72=VERTEX_POINT('',#217);
#73=VERTEX_POINT('',#219);
#74=VERTEX_POINT('',#223);
#75=VERTEX_POINT('',#225);
#76=VERTEX_POINT('',#229);
#77=VERTEX_POINT('',#231);
#78=EDGE_CURVE('',#68,#68,#66,.T.);
#79=EDGE_CURVE('',#68,#69,#40,.T.);
#80=EDGE_CURVE('',#69,#69,#67,.T.);
#81=EDGE_CURVE('',#70,#71,#41,.T.);
#82=EDGE_CURVE('',#70,#72,#42,.T.);
#83=EDGE_CURVE('',#73,#72,#43,.T.);
#84=EDGE_CURVE('',#71,#73,#44,.T.);
#85=EDGE_CURVE('',#71,#74,#45,.T.);
#86=EDGE_CURVE('',#75,#73,#46,.T.);
#87=EDGE_CURVE('',#74,#75,#47,.T.);
#88=EDGE_CURVE('',#74,#76,#48,.T.);
#89=EDGE_CURVE('',#77,#75,#49,.T.);
#90=EDGE_CURVE('',#76,#77,#50,.T.);
#91=EDGE_CURVE('',#76,#70,#51,.T.);
#92=EDGE_CURVE('',#72,#77,#52,.T.);
#93=ORIENTED_EDGE('',*,*,#78,.F.);
#94=ORIENTED_EDGE('',*,*,#79,.T.);
#95=ORIENTED_EDGE('',*,*,#80,.T.);
#96=ORIENTED_EDGE('',*,*,#79,.F.);
#97=ORIENTED_EDGE('',*,*,#80,.F.);
#98=ORIENTED_EDGE('',*,*,#81,.F.);
#99=ORIENTED_EDGE('',*,*,#82,.T.);
#100=ORIENTED_EDGE('',*,*,#83,.F.);
#101=ORIENTED_EDGE('',*,*,#84,.F.);
#102=ORIENTED_EDGE('',*,*,#85,.F.);
#103=ORIENTED_EDGE('',*,*,#84,.T.);
#104=ORIENTED_EDGE('',*,*,#86,.F.);
#105=ORIENTED_EDGE('',*,*,#87,.F.);
#106=ORIENTED_EDGE('',*,*,#88,.F.);
#107=ORIENTED_EDGE('',*,*,#87,.T.);
#108=ORIENTED_EDGE('',*,*,#89,.F.);
#109=ORIENTED_EDGE('',*,*,#90,.F.);
#110=ORIENTED_EDGE('',*,*,#91,.F.);
#111=ORIENTED_EDGE('',*,*,#90,.T.);
#112=ORIENTED_EDGE('',*,*,#92,.F.);
#113=ORIENTED_EDGE('',*,*,#82,.F.);
#114=ORIENTED_EDGE('',*,*,#92,.T.);
#115=ORIENTED_EDGE('',*,*,#89,.T.);
#116=ORIENTED_EDGE('',*,*,#86,.T.);
#117=ORIENTED_EDGE('',*,*,#83,.T.);
#118=ORIENTED_EDGE('',*,*,#78,.T.);
#119=ORIENTED_EDGE('',*,*,#91,.T.);
#120=ORIENTED_EDGE('',*,*,#81,.T.);
#121=ORIENTED_EDGE('',*,*,#85,.T.);
#122=ORIENTED_EDGE('',*,*,#88,.T.);
#123=(
BOUNDED_SURFACE()
B_SPLINE_SURFACE(1,2,((#189,#190,#191,#192,#193,#194,#195,#196,#197),(#198,
#199,#200,#201,#202,#203,#204,#205,#206)),.UNSPECIFIED.,.F.,.T.,.F.)
B_SPLINE_SURFACE_WITH_KNOTS((2,2),(3,2,2,2,3),(0.,0.250701545982788),(-3.14159265358979,
-1.5707963267949,0.,1.5707963267949,3.14159265358979),.UNSPECIFIED.)
GEOMETRIC_REPRESENTATION_ITEM()
RATIONAL_B_SPLINE_SURFACE(((1.,0.707106781186548,1.,0.707106781186548,1.,
0.707106781186548,1.,0.707106781186548,1.),(1.,0.707106781186548,1.,0.707106781186548,
1.,0.707106781186548,1.,0.707106781186548,1.)))
REPRESENTATION_ITEM('')
SURFACE()
);
#124=ADVANCED_FACE('',(#23),#123,.T.);
#125=ADVANCED_FACE('',(#24),#16,.T.);
#126=ADVANCED_FACE('',(#25),#17,.T.);
#127=ADVANCED_FACE('',(#26),#18,.T.);
#128=ADVANCED_FACE('',(#27),#19,.T.);
#129=ADVANCED_FACE('',(#28),#20,.T.);
#130=ADVANCED_FACE('',(#29,#15),#21,.T.);
#131=ADVANCED_FACE('',(#30),#22,.F.);
#132=CLOSED_SHELL('',(#124,#125,#126,#127,#128,#129,#130,#131));
#133=DERIVED_UNIT_ELEMENT(#135,1.);
#134=DERIVED_UNIT_ELEMENT(#244,-3.);
#135=(
MASS_UNIT()
NAMED_UNIT(*)
SI_UNIT(.KILO.,.GRAM.)
);
#136=DERIVED_UNIT((#133,#134));
#137=MEASURE_REPRESENTATION_ITEM('density measure',
POSITIVE_RATIO_MEASURE(7850.),#136);
#138=PROPERTY_DEFINITION_REPRESENTATION(#143,#140);
#139=PROPERTY_DEFINITION_REPRESENTATION(#144,#141);
#140=REPRESENTATION('material name',(#142),#241);
#141=REPRESENTATION('density',(#137),#241);
#142=DESCRIPTIVE_REPRESENTATION_ITEM('Steel','Steel');
#143=PROPERTY_DEFINITION('material property','material name',#251);
#144=PROPERTY_DEFINITION('material property','density of part',#251);
#145=AXIS2_PLACEMENT_3D('placement',#188,#155,#156);
#146=AXIS2_PLACEMENT_3D('',#208,#157,#158);
#147=AXIS2_PLACEMENT_3D('',#211,#160,#161);
#148=AXIS2_PLACEMENT_3D('',#212,#162,#163);
#149=AXIS2_PLACEMENT_3D('',#213,#164,#165);
#150=AXIS2_PLACEMENT_3D('',#222,#170,#171);
#151=AXIS2_PLACEMENT_3D('',#228,#175,#176);
#152=AXIS2_PLACEMENT_3D('',#234,#180,#181);
#153=AXIS2_PLACEMENT_3D('',#237,#184,#185);
#154=AXIS2_PLACEMENT_3D('',#238,#186,#187);
#155=DIRECTION('axis',(0.,0.,1.));
#156=DIRECTION('refdir',(1.,0.,0.));
#157=DIRECTION('center_axis',(0.,0.,-1.));
#158=DIRECTION('ref_axis',(1.,0.,0.));
#159=DIRECTION('',(0.,0.,-1.));
#160=DIRECTION('center_axis',(0.,0.,-1.));
#161=DIRECTION('ref_axis',(1.,0.,0.));
#162=DIRECTION('center_axis',(0.,0.,1.));
#163=DIRECTION('ref_axis',(-1.,0.,0.));
#164=DIRECTION('center_axis',(-1.,0.,0.));
#165=DIRECTION('ref_axis',(0.,-1.,0.));
#166=DIRECTION('',(0.,1.,0.));
#167=DIRECTION('',(0.,0.,1.));
#168=DIRECTION('',(0.,-1.,0.));
#169=DIRECTION('',(0.,0.,1.));
#170=DIRECTION('center_axis',(0.,1.,0.));
#171=DIRECTION('ref_axis',(-1.,0.,0.));
#172=DIRECTION('',(1.,0.,0.));
#173=DIRECTION('',(-1.,0.,0.));
#174=DIRECTION('',(0.,0.,1.));
#175=DIRECTION('center_axis',(1.,0.,0.));
#176=DIRECTION('ref_axis',(0.,1.,0.));
#177=DIRECTION('',(0.,-1.,0.));
#178=DIRECTION('',(0.,1.,0.));
#179=DIRECTION('',(0.,0.,1.));
#180=DIRECTION('center_axis',(0.,-1.,0.));
#181=DIRECTION('ref_axis',(1.,0.,0.));
#182=DIRECTION('',(-1.,0.,0.));
#183=DIRECTION('',(1.,0.,0.));
#184=DIRECTION('center_axis',(0.,0.,1.));
#185=DIRECTION('ref_axis',(1.,0.,0.));
#186=DIRECTION('center_axis',(0.,0.,1.));
#187=DIRECTION('ref_axis',(1.,0.,0.));
#188=CARTESIAN_POINT('',(0.,0.,0.));
#189=CARTESIAN_POINT('Ctrl Pts',(-39.7761334960938,23.7998016247836,20.));
#190=CARTESIAN_POINT('Ctrl Pts',(-39.7761334960938,38.7086306443274,20.));
#191=CARTESIAN_POINT('Ctrl Pts',(0.111933251953111,38.7086306443274,20.));
#192=CARTESIAN_POINT('Ctrl Pts',(40.,38.7086306443274,20.));
#193=CARTESIAN_POINT('Ctrl Pts',(40.,23.7998016247836,20.));
#194=CARTESIAN_POINT('Ctrl Pts',(40.,8.8909726052398,20.));
#195=CARTESIAN_POINT('Ctrl Pts',(0.111933251953111,8.8909726052398,20.));
#196=CARTESIAN_POINT('Ctrl Pts',(-39.7761334960938,8.8909726052398,20.));
#197=CARTESIAN_POINT('Ctrl Pts',(-39.7761334960938,23.7998016247836,20.));
#198=CARTESIAN_POINT('Ctrl Pts',(-39.7761334960938,23.7998016247836,10.));
#199=CARTESIAN_POINT('Ctrl Pts',(-39.7761334960938,38.7086306443274,10.));
#200=CARTESIAN_POINT('Ctrl Pts',(0.111933251953111,38.7086306443274,10.));
#201=CARTESIAN_POINT('Ctrl Pts',(40.,38.7086306443274,10.));
#202=CARTESIAN_POINT('Ctrl Pts',(40.,23.7998016247836,10.));
#203=CARTESIAN_POINT('Ctrl Pts',(40.,8.8909726052398,10.));
#204=CARTESIAN_POINT('Ctrl Pts',(0.111933251953111,8.8909726052398,10.));
#205=CARTESIAN_POINT('Ctrl Pts',(-39.7761334960938,8.8909726052398,10.));
#206=CARTESIAN_POINT('Ctrl Pts',(-39.7761334960938,23.7998016247836,10.));
#207=CARTESIAN_POINT('',(-39.7761334960938,23.7998016247836,20.));
#208=CARTESIAN_POINT('Origin',(0.111933251953111,23.7998016247836,20.));
#209=CARTESIAN_POINT('',(-39.7761334960938,23.7998016247836,10.));
#210=CARTESIAN_POINT('',(-39.7761334960938,23.7998016247836,20.));
#211=CARTESIAN_POINT('Origin',(0.111933251953111,23.7998016247836,10.));
#212=CARTESIAN_POINT('Origin',(0.111933251953111,23.7998016247836,10.));
#213=CARTESIAN_POINT('Origin',(-50.,50.,0.));
#214=CARTESIAN_POINT('',(-50.,0.,0.));
#215=CARTESIAN_POINT('',(-50.,50.,0.));
#216=CARTESIAN_POINT('',(-50.,0.,0.));
#217=CARTESIAN_POINT('',(-50.,0.,20.));
#218=CARTESIAN_POINT('',(-50.,0.,0.));
#219=CARTESIAN_POINT('',(-50.,50.,20.));
#220=CARTESIAN_POINT('',(-50.,0.,20.));
#221=CARTESIAN_POINT('',(-50.,50.,0.));
#222=CARTESIAN_POINT('Origin',(50.,50.,0.));
#223=CARTESIAN_POINT('',(50.,50.,0.));
#224=CARTESIAN_POINT('',(-50.,50.,0.));
#225=CARTESIAN_POINT('',(50.,50.,20.));
#226=CARTESIAN_POINT('',(-50.,50.,20.));
#227=CARTESIAN_POINT('',(50.,50.,0.));
#228=CARTESIAN_POINT('Origin',(50.,0.,0.));
#229=CARTESIAN_POINT('',(50.,0.,0.));
#230=CARTESIAN_POINT('',(50.,50.,0.));
#231=CARTESIAN_POINT('',(50.,0.,20.));
#232=CARTESIAN_POINT('',(50.,50.,20.));
#233=CARTESIAN_POINT('',(50.,0.,0.));
#234=CARTESIAN_POINT('Origin',(-50.,0.,0.));
#235=CARTESIAN_POINT('',(50.,0.,0.));
#236=CARTESIAN_POINT('',(50.,0.,20.));
#237=CARTESIAN_POINT('Origin',(0.,25.,20.));
#238=CARTESIAN_POINT('Origin',(0.,25.,0.));
#239=UNCERTAINTY_MEASURE_WITH_UNIT(LENGTH_MEASURE(0.01),#243,
'DISTANCE_ACCURACY_VALUE',
'Maximum model space distance between geometric entities at asserted c
onnectivities');
#240=UNCERTAINTY_MEASURE_WITH_UNIT(LENGTH_MEASURE(0.01),#243,
'DISTANCE_ACCURACY_VALUE',
'Maximum model space distance between geometric entities at asserted c
onnectivities');
#241=(
GEOMETRIC_REPRESENTATION_CONTEXT(3)
GLOBAL_UNCERTAINTY_ASSIGNED_CONTEXT((#239))
GLOBAL_UNIT_ASSIGNED_CONTEXT((#243,#245,#246))
REPRESENTATION_CONTEXT('','3D')
);
#242=(
GEOMETRIC_REPRESENTATION_CONTEXT(3)
GLOBAL_UNCERTAINTY_ASSIGNED_CONTEXT((#240))
GLOBAL_UNIT_ASSIGNED_CONTEXT((#243,#245,#246))
REPRESENTATION_CONTEXT('','3D')
);
#243=(
LENGTH_UNIT()
NAMED_UNIT(*)
SI_UNIT(.MILLI.,.METRE.)
);
#244=(
LENGTH_UNIT()
NAMED_UNIT(*)
SI_UNIT($,.METRE.)
);
#245=(
NAMED_UNIT(*)
PLANE_ANGLE_UNIT()
SI_UNIT($,.RADIAN.)
);
#246=(
NAMED_UNIT(*)
SI_UNIT($,.STERADIAN.)
SOLID_ANGLE_UNIT()
);
#247=SHAPE_DEFINITION_REPRESENTATION(#248,#249);
#248=PRODUCT_DEFINITION_SHAPE('',$,#251);
#249=SHAPE_REPRESENTATION('',(#145),#241);
#250=PRODUCT_DEFINITION_CONTEXT('part definition',#255,'design');
#251=PRODUCT_DEFINITION('(Unsaved)','(Unsaved)',#252,#250);
#252=PRODUCT_DEFINITION_FORMATION('',$,#257);
#253=PRODUCT_RELATED_PRODUCT_CATEGORY('(Unsaved)','(Unsaved)',(#257));
#254=APPLICATION_PROTOCOL_DEFINITION('international standard',
'automotive_design',2009,#255);
#255=APPLICATION_CONTEXT(
'Core Data for Automotive Mechanical Design Process');
#256=PRODUCT_CONTEXT('part definition',#255,'mechanical');
#257=PRODUCT('(Unsaved)','(Unsaved)',$,(#256));
#258=PRESENTATION_STYLE_ASSIGNMENT((#259));
#259=SURFACE_STYLE_USAGE(.BOTH.,#260);
#260=SURFACE_SIDE_STYLE('',(#261));
#261=SURFACE_STYLE_FILL_AREA(#262);
#262=FILL_AREA_STYLE('Steel - Satin',(#263));
#263=FILL_AREA_STYLE_COLOUR('Steel - Satin',#264);
#264=COLOUR_RGB('Steel - Satin',0.627450980392157,0.627450980392157,0.627450980392157);
ENDSEC;
END-ISO-10303-21;
