ISO-10303-21;
HEADER;
/* Generated by software containing ST-Developer
 * from STEP Tools, Inc. (www.steptools.com) 
 */

FILE_DESCRIPTION(
/* description */ (''),
/* implementation_level */ '2;1');

FILE_NAME(
/* name */ 
'D:/E/projects/jgl/CNN/BRepNet/tests/test_data/simple_solids/block_thr
ough_hole.step',
/* time_stamp */ '2021-04-22T10:20:35+01:00',
/* author */ (''),
/* organization */ (''),
/* preprocessor_version */ 'ST-DEVELOPER v18.1',
/* originating_system */ 'Autodesk Translation Framework v10.6.0.1341',

/* authorisation */ '');

FILE_SCHEMA (('AUTOMOTIVE_DESIGN { 1 0 10303 214 3 1 1 }'));
ENDSEC;

DATA;
#10=MECHANICAL_DESIGN_GEOMETRIC_PRESENTATION_REPRESENTATION('',(#13),#222);
#11=SHAPE_REPRESENTATION_RELATIONSHIP('SRR','None',#229,#12);
#12=ADVANCED_BREP_SHAPE_REPRESENTATION('',(#14),#221);
#13=STYLED_ITEM('',(#238),#14);
#14=MANIFOLD_SOLID_BREP('Body1',#130);
#15=FACE_BOUND('',#36,.T.);
#16=FACE_BOUND('',#38,.T.);
#17=PLANE('',#147);
#18=PLANE('',#148);
#19=PLANE('',#149);
#20=PLANE('',#150);
#21=PLANE('',#151);
#22=PLANE('',#152);
#23=FACE_OUTER_BOUND('',#30,.T.);
#24=FACE_OUTER_BOUND('',#31,.T.);
#25=FACE_OUTER_BOUND('',#32,.T.);
#26=FACE_OUTER_BOUND('',#33,.T.);
#27=FACE_OUTER_BOUND('',#34,.T.);
#28=FACE_OUTER_BOUND('',#35,.T.);
#29=FACE_OUTER_BOUND('',#37,.T.);
#30=EDGE_LOOP('',(#92,#93,#94,#95));
#31=EDGE_LOOP('',(#96,#97,#98,#99));
#32=EDGE_LOOP('',(#100,#101,#102,#103));
#33=EDGE_LOOP('',(#104,#105,#106,#107));
#34=EDGE_LOOP('',(#108,#109,#110,#111));
#35=EDGE_LOOP('',(#112,#113,#114,#115));
#36=EDGE_LOOP('',(#116));
#37=EDGE_LOOP('',(#117,#118,#119,#120));
#38=EDGE_LOOP('',(#121));
#39=LINE('',#191,#52);
#40=LINE('',#196,#53);
#41=LINE('',#198,#54);
#42=LINE('',#200,#55);
#43=LINE('',#201,#56);
#44=LINE('',#204,#57);
#45=LINE('',#206,#58);
#46=LINE('',#207,#59);
#47=LINE('',#210,#60);
#48=LINE('',#212,#61);
#49=LINE('',#213,#62);
#50=LINE('',#215,#63);
#51=LINE('',#216,#64);
#52=VECTOR('',#159,14.3749945284276);
#53=VECTOR('',#164,10.);
#54=VECTOR('',#165,10.);
#55=VECTOR('',#166,10.);
#56=VECTOR('',#167,10.);
#57=VECTOR('',#170,10.);
#58=VECTOR('',#171,10.);
#59=VECTOR('',#172,10.);
#60=VECTOR('',#175,10.);
#61=VECTOR('',#176,10.);
#62=VECTOR('',#177,10.);
#63=VECTOR('',#180,10.);
#64=VECTOR('',#181,10.);
#65=CIRCLE('',#145,14.3749945284276);
#66=CIRCLE('',#146,14.3749945284276);
#67=VERTEX_POINT('',#188);
#68=VERTEX_POINT('',#190);
#69=VERTEX_POINT('',#194);
#70=VERTEX_POINT('',#195);
#71=VERTEX_POINT('',#197);
#72=VERTEX_POINT('',#199);
#73=VERTEX_POINT('',#203);
#74=VERTEX_POINT('',#205);
#75=VERTEX_POINT('',#209);
#76=VERTEX_POINT('',#211);
#77=EDGE_CURVE('',#67,#67,#65,.T.);
#78=EDGE_CURVE('',#67,#68,#39,.T.);
#79=EDGE_CURVE('',#68,#68,#66,.T.);
#80=EDGE_CURVE('',#69,#70,#40,.T.);
#81=EDGE_CURVE('',#70,#71,#41,.T.);
#82=EDGE_CURVE('',#72,#71,#42,.T.);
#83=EDGE_CURVE('',#69,#72,#43,.T.);
#84=EDGE_CURVE('',#73,#69,#44,.T.);
#85=EDGE_CURVE('',#74,#72,#45,.T.);
#86=EDGE_CURVE('',#73,#74,#46,.T.);
#87=EDGE_CURVE('',#75,#73,#47,.T.);
#88=EDGE_CURVE('',#76,#74,#48,.T.);
#89=EDGE_CURVE('',#75,#76,#49,.T.);
#90=EDGE_CURVE('',#70,#75,#50,.T.);
#91=EDGE_CURVE('',#71,#76,#51,.T.);
#92=ORIENTED_EDGE('',*,*,#77,.F.);
#93=ORIENTED_EDGE('',*,*,#78,.T.);
#94=ORIENTED_EDGE('',*,*,#79,.F.);
#95=ORIENTED_EDGE('',*,*,#78,.F.);
#96=ORIENTED_EDGE('',*,*,#80,.T.);
#97=ORIENTED_EDGE('',*,*,#81,.T.);
#98=ORIENTED_EDGE('',*,*,#82,.F.);
#99=ORIENTED_EDGE('',*,*,#83,.F.);
#100=ORIENTED_EDGE('',*,*,#84,.T.);
#101=ORIENTED_EDGE('',*,*,#83,.T.);
#102=ORIENTED_EDGE('',*,*,#85,.F.);
#103=ORIENTED_EDGE('',*,*,#86,.F.);
#104=ORIENTED_EDGE('',*,*,#87,.T.);
#105=ORIENTED_EDGE('',*,*,#86,.T.);
#106=ORIENTED_EDGE('',*,*,#88,.F.);
#107=ORIENTED_EDGE('',*,*,#89,.F.);
#108=ORIENTED_EDGE('',*,*,#90,.T.);
#109=ORIENTED_EDGE('',*,*,#89,.T.);
#110=ORIENTED_EDGE('',*,*,#91,.F.);
#111=ORIENTED_EDGE('',*,*,#81,.F.);
#112=ORIENTED_EDGE('',*,*,#91,.T.);
#113=ORIENTED_EDGE('',*,*,#88,.T.);
#114=ORIENTED_EDGE('',*,*,#85,.T.);
#115=ORIENTED_EDGE('',*,*,#82,.T.);
#116=ORIENTED_EDGE('',*,*,#77,.T.);
#117=ORIENTED_EDGE('',*,*,#90,.F.);
#118=ORIENTED_EDGE('',*,*,#80,.F.);
#119=ORIENTED_EDGE('',*,*,#84,.F.);
#120=ORIENTED_EDGE('',*,*,#87,.F.);
#121=ORIENTED_EDGE('',*,*,#79,.T.);
#122=CYLINDRICAL_SURFACE('',#144,14.3749945284276);
#123=ADVANCED_FACE('',(#23),#122,.F.);
#124=ADVANCED_FACE('',(#24),#17,.T.);
#125=ADVANCED_FACE('',(#25),#18,.T.);
#126=ADVANCED_FACE('',(#26),#19,.T.);
#127=ADVANCED_FACE('',(#27),#20,.T.);
#128=ADVANCED_FACE('',(#28,#15),#21,.T.);
#129=ADVANCED_FACE('',(#29,#16),#22,.F.);
#130=CLOSED_SHELL('',(#123,#124,#125,#126,#127,#128,#129));
#131=DERIVED_UNIT_ELEMENT(#133,1.);
#132=DERIVED_UNIT_ELEMENT(#224,-3.);
#133=(
MASS_UNIT()
NAMED_UNIT(*)
SI_UNIT(.KILO.,.GRAM.)
);
#134=DERIVED_UNIT((#131,#132));
#135=MEASURE_REPRESENTATION_ITEM('density measure',
POSITIVE_RATIO_MEASURE(7850.),#134);
#136=PROPERTY_DEFINITION_REPRESENTATION(#141,#138);
#137=PROPERTY_DEFINITION_REPRESENTATION(#142,#139);
#138=REPRESENTATION('material name',(#140),#221);
#139=REPRESENTATION('density',(#135),#221);
#140=DESCRIPTIVE_REPRESENTATION_ITEM('Steel','Steel');
#141=PROPERTY_DEFINITION('material property','material name',#231);
#142=PROPERTY_DEFINITION('material property','density of part',#231);
#143=AXIS2_PLACEMENT_3D('placement',#186,#153,#154);
#144=AXIS2_PLACEMENT_3D('',#187,#155,#156);
#145=AXIS2_PLACEMENT_3D('',#189,#157,#158);
#146=AXIS2_PLACEMENT_3D('',#192,#160,#161);
#147=AXIS2_PLACEMENT_3D('',#193,#162,#163);
#148=AXIS2_PLACEMENT_3D('',#202,#168,#169);
#149=AXIS2_PLACEMENT_3D('',#208,#173,#174);
#150=AXIS2_PLACEMENT_3D('',#214,#178,#179);
#151=AXIS2_PLACEMENT_3D('',#217,#182,#183);
#152=AXIS2_PLACEMENT_3D('',#218,#184,#185);
#153=DIRECTION('axis',(0.,0.,1.));
#154=DIRECTION('refdir',(1.,0.,0.));
#155=DIRECTION('center_axis',(0.,0.,-1.));
#156=DIRECTION('ref_axis',(-1.,0.,0.));
#157=DIRECTION('center_axis',(0.,0.,-1.));
#158=DIRECTION('ref_axis',(-1.,0.,0.));
#159=DIRECTION('',(0.,0.,-1.));
#160=DIRECTION('center_axis',(0.,0.,1.));
#161=DIRECTION('ref_axis',(-1.,0.,0.));
#162=DIRECTION('center_axis',(0.,1.,0.));
#163=DIRECTION('ref_axis',(-1.,0.,0.));
#164=DIRECTION('',(-1.,0.,0.));
#165=DIRECTION('',(0.,0.,1.));
#166=DIRECTION('',(-1.,0.,0.));
#167=DIRECTION('',(0.,0.,1.));
#168=DIRECTION('center_axis',(1.,0.,0.));
#169=DIRECTION('ref_axis',(0.,1.,0.));
#170=DIRECTION('',(0.,1.,0.));
#171=DIRECTION('',(0.,1.,0.));
#172=DIRECTION('',(0.,0.,1.));
#173=DIRECTION('center_axis',(0.,-1.,0.));
#174=DIRECTION('ref_axis',(1.,0.,0.));
#175=DIRECTION('',(1.,0.,0.));
#176=DIRECTION('',(1.,0.,0.));
#177=DIRECTION('',(0.,0.,1.));
#178=DIRECTION('center_axis',(-1.,0.,0.));
#179=DIRECTION('ref_axis',(0.,-1.,0.));
#180=DIRECTION('',(0.,-1.,0.));
#181=DIRECTION('',(0.,-1.,0.));
#182=DIRECTION('center_axis',(0.,0.,1.));
#183=DIRECTION('ref_axis',(1.,0.,0.));
#184=DIRECTION('center_axis',(0.,0.,1.));
#185=DIRECTION('ref_axis',(1.,0.,0.));
#186=CARTESIAN_POINT('',(0.,0.,0.));
#187=CARTESIAN_POINT('Origin',(24.0206368356185,25.,40.));
#188=CARTESIAN_POINT('',(38.395631364046,25.,40.));
#189=CARTESIAN_POINT('Origin',(24.0206368356185,25.,40.));
#190=CARTESIAN_POINT('',(38.395631364046,25.,0.));
#191=CARTESIAN_POINT('',(38.395631364046,25.,40.));
#192=CARTESIAN_POINT('Origin',(24.0206368356185,25.,0.));
#193=CARTESIAN_POINT('Origin',(50.,50.,0.));
#194=CARTESIAN_POINT('',(50.,50.,0.));
#195=CARTESIAN_POINT('',(0.,50.,0.));
#196=CARTESIAN_POINT('',(50.,50.,0.));
#197=CARTESIAN_POINT('',(0.,50.,40.));
#198=CARTESIAN_POINT('',(0.,50.,0.));
#199=CARTESIAN_POINT('',(50.,50.,40.));
#200=CARTESIAN_POINT('',(50.,50.,40.));
#201=CARTESIAN_POINT('',(50.,50.,0.));
#202=CARTESIAN_POINT('Origin',(50.,0.,0.));
#203=CARTESIAN_POINT('',(50.,0.,0.));
#204=CARTESIAN_POINT('',(50.,0.,0.));
#205=CARTESIAN_POINT('',(50.,0.,40.));
#206=CARTESIAN_POINT('',(50.,0.,40.));
#207=CARTESIAN_POINT('',(50.,0.,0.));
#208=CARTESIAN_POINT('Origin',(0.,0.,0.));
#209=CARTESIAN_POINT('',(0.,0.,0.));
#210=CARTESIAN_POINT('',(0.,0.,0.));
#211=CARTESIAN_POINT('',(0.,0.,40.));
#212=CARTESIAN_POINT('',(0.,0.,40.));
#213=CARTESIAN_POINT('',(0.,0.,0.));
#214=CARTESIAN_POINT('Origin',(0.,50.,0.));
#215=CARTESIAN_POINT('',(0.,50.,0.));
#216=CARTESIAN_POINT('',(0.,50.,40.));
#217=CARTESIAN_POINT('Origin',(25.,25.,40.));
#218=CARTESIAN_POINT('Origin',(25.,25.,0.));
#219=UNCERTAINTY_MEASURE_WITH_UNIT(LENGTH_MEASURE(0.01),#223,
'DISTANCE_ACCURACY_VALUE',
'Maximum model space distance between geometric entities at asserted c
onnectivities');
#220=UNCERTAINTY_MEASURE_WITH_UNIT(LENGTH_MEASURE(0.01),#223,
'DISTANCE_ACCURACY_VALUE',
'Maximum model space distance between geometric entities at asserted c
onnectivities');
#221=(
GEOMETRIC_REPRESENTATION_CONTEXT(3)
GLOBAL_UNCERTAINTY_ASSIGNED_CONTEXT((#219))
GLOBAL_UNIT_ASSIGNED_CONTEXT((#223,#225,#226))
REPRESENTATION_CONTEXT('','3D')
);
#222=(
GEOMETRIC_REPRESENTATION_CONTEXT(3)
GLOBAL_UNCERTAINTY_ASSIGNED_CONTEXT((#220))
GLOBAL_UNIT_ASSIGNED_CONTEXT((#223,#225,#226))
REPRESENTATION_CONTEXT('','3D')
);
#223=(
LENGTH_UNIT()
NAMED_UNIT(*)
SI_UNIT(.MILLI.,.METRE.)
);
#224=(
LENGTH_UNIT()
NAMED_UNIT(*)
SI_UNIT($,.METRE.)
);
#225=(
NAMED_UNIT(*)
PLANE_ANGLE_UNIT()
SI_UNIT($,.RADIAN.)
);
#226=(
NAMED_UNIT(*)
SI_UNIT($,.STERADIAN.)
SOLID_ANGLE_UNIT()
);
#227=SHAPE_DEFINITION_REPRESENTATION(#228,#229);
#228=PRODUCT_DEFINITION_SHAPE('',$,#231);
#229=SHAPE_REPRESENTATION('',(#143),#221);
#230=PRODUCT_DEFINITION_CONTEXT('part definition',#235,'design');
#231=PRODUCT_DEFINITION('(Unsaved)','(Unsaved)',#232,#230);
#232=PRODUCT_DEFINITION_FORMATION('',$,#237);
#233=PRODUCT_RELATED_PRODUCT_CATEGORY('(Unsaved)','(Unsaved)',(#237));
#234=APPLICATION_PROTOCOL_DEFINITION('international standard',
'automotive_design',2009,#235);
#235=APPLICATION_CONTEXT(
'Core Data for Automotive Mechanical Design Process');
#236=PRODUCT_CONTEXT('part definition',#235,'mechanical');
#237=PRODUCT('(Unsaved)','(Unsaved)',$,(#236));
#238=PRESENTATION_STYLE_ASSIGNMENT((#239));
#239=SURFACE_STYLE_USAGE(.BOTH.,#240);
#240=SURFACE_SIDE_STYLE('',(#241));
#241=SURFACE_STYLE_FILL_AREA(#242);
#242=FILL_AREA_STYLE('Steel - Satin',(#243));
#243=FILL_AREA_STYLE_COLOUR('Steel - Satin',#244);
#244=COLOUR_RGB('Steel - Satin',0.627450980392157,0.627450980392157,0.627450980392157);
ENDSEC;
END-ISO-10303-21;
