ISO-10303-21;
HEADER;
/* Generated by software containing ST-Developer
 * from STEP Tools, Inc. (www.steptools.com) 
 */

FILE_DESCRIPTION(
/* description */ (''),
/* implementation_level */ '2;1');

FILE_NAME(
/* name */ 
'D:/E/projects/jgl/CNN/BRepNet/tests/test_data/simple_solids/face_3_lo
ops.step',
/* time_stamp */ '2021-04-22T10:55:51+01:00',
/* author */ (''),
/* organization */ (''),
/* preprocessor_version */ 'ST-DEVELOPER v18.1',
/* originating_system */ 'Autodesk Translation Framework v10.6.0.1341',

/* authorisation */ '');

FILE_SCHEMA (('AUTOMOTIVE_DESIGN { 1 0 10303 214 3 1 1 }'));
ENDSEC;

DATA;
#10=MECHANICAL_DESIGN_GEOMETRIC_PRESENTATION_REPRESENTATION('',(#13),#578);
#11=SHAPE_REPRESENTATION_RELATIONSHIP('SRR','None',#585,#12);
#12=ADVANCED_BREP_SHAPE_REPRESENTATION('',(#14),#577);
#13=STYLED_ITEM('',(#594),#14);
#14=MANIFOLD_SOLID_BREP('Body1',#354);
#15=FACE_BOUND('',#60,.T.);
#16=FACE_BOUND('',#61,.T.);
#17=FACE_BOUND('',#62,.T.);
#18=CIRCLE('',#376,13.5367705503984);
#19=CIRCLE('',#377,13.5367705503984);
#20=CYLINDRICAL_SURFACE('',#375,13.5367705503984);
#21=FACE_OUTER_BOUND('',#41,.T.);
#22=FACE_OUTER_BOUND('',#42,.T.);
#23=FACE_OUTER_BOUND('',#43,.T.);
#24=FACE_OUTER_BOUND('',#44,.T.);
#25=FACE_OUTER_BOUND('',#45,.T.);
#26=FACE_OUTER_BOUND('',#46,.T.);
#27=FACE_OUTER_BOUND('',#47,.T.);
#28=FACE_OUTER_BOUND('',#48,.T.);
#29=FACE_OUTER_BOUND('',#49,.T.);
#30=FACE_OUTER_BOUND('',#50,.T.);
#31=FACE_OUTER_BOUND('',#51,.T.);
#32=FACE_OUTER_BOUND('',#52,.T.);
#33=FACE_OUTER_BOUND('',#53,.T.);
#34=FACE_OUTER_BOUND('',#54,.T.);
#35=FACE_OUTER_BOUND('',#55,.T.);
#36=FACE_OUTER_BOUND('',#56,.T.);
#37=FACE_OUTER_BOUND('',#57,.T.);
#38=FACE_OUTER_BOUND('',#58,.T.);
#39=FACE_OUTER_BOUND('',#59,.T.);
#40=FACE_OUTER_BOUND('',#63,.T.);
#41=EDGE_LOOP('',(#225,#226,#227,#228));
#42=EDGE_LOOP('',(#229,#230,#231,#232));
#43=EDGE_LOOP('',(#233,#234,#235,#236));
#44=EDGE_LOOP('',(#237,#238,#239,#240));
#45=EDGE_LOOP('',(#241,#242,#243,#244));
#46=EDGE_LOOP('',(#245,#246,#247,#248));
#47=EDGE_LOOP('',(#249,#250,#251,#252,#253,#254));
#48=EDGE_LOOP('',(#255,#256,#257,#258));
#49=EDGE_LOOP('',(#259));
#50=EDGE_LOOP('',(#260,#261,#262,#263));
#51=EDGE_LOOP('',(#264,#265,#266,#267));
#52=EDGE_LOOP('',(#268,#269,#270,#271));
#53=EDGE_LOOP('',(#272,#273,#274,#275));
#54=EDGE_LOOP('',(#276,#277,#278,#279));
#55=EDGE_LOOP('',(#280,#281,#282,#283));
#56=EDGE_LOOP('',(#284,#285,#286,#287));
#57=EDGE_LOOP('',(#288,#289,#290,#291));
#58=EDGE_LOOP('',(#292,#293,#294,#295));
#59=EDGE_LOOP('',(#296,#297,#298,#299));
#60=EDGE_LOOP('',(#300,#301,#302,#303,#304,#305));
#61=EDGE_LOOP('',(#306));
#62=EDGE_LOOP('',(#307,#308,#309,#310));
#63=EDGE_LOOP('',(#311,#312,#313,#314));
#64=LINE('',#483,#107);
#65=LINE('',#485,#108);
#66=LINE('',#487,#109);
#67=LINE('',#488,#110);
#68=LINE('',#491,#111);
#69=LINE('',#493,#112);
#70=LINE('',#494,#113);
#71=LINE('',#497,#114);
#72=LINE('',#499,#115);
#73=LINE('',#500,#116);
#74=LINE('',#503,#117);
#75=LINE('',#505,#118);
#76=LINE('',#506,#119);
#77=LINE('',#509,#120);
#78=LINE('',#511,#121);
#79=LINE('',#512,#122);
#80=LINE('',#514,#123);
#81=LINE('',#515,#124);
#82=LINE('',#521,#125);
#83=LINE('',#527,#126);
#84=LINE('',#529,#127);
#85=LINE('',#531,#128);
#86=LINE('',#532,#129);
#87=LINE('',#535,#130);
#88=LINE('',#537,#131);
#89=LINE('',#538,#132);
#90=LINE('',#541,#133);
#91=LINE('',#543,#134);
#92=LINE('',#544,#135);
#93=LINE('',#546,#136);
#94=LINE('',#547,#137);
#95=LINE('',#552,#138);
#96=LINE('',#554,#139);
#97=LINE('',#556,#140);
#98=LINE('',#557,#141);
#99=LINE('',#560,#142);
#100=LINE('',#562,#143);
#101=LINE('',#563,#144);
#102=LINE('',#566,#145);
#103=LINE('',#568,#146);
#104=LINE('',#569,#147);
#105=LINE('',#571,#148);
#106=LINE('',#572,#149);
#107=VECTOR('',#394,10.);
#108=VECTOR('',#395,10.);
#109=VECTOR('',#396,10.);
#110=VECTOR('',#397,10.);
#111=VECTOR('',#400,10.);
#112=VECTOR('',#401,10.);
#113=VECTOR('',#402,10.);
#114=VECTOR('',#405,10.);
#115=VECTOR('',#406,10.);
#116=VECTOR('',#407,10.);
#117=VECTOR('',#410,10.);
#118=VECTOR('',#411,10.);
#119=VECTOR('',#412,10.);
#120=VECTOR('',#415,10.);
#121=VECTOR('',#416,10.);
#122=VECTOR('',#417,10.);
#123=VECTOR('',#420,10.);
#124=VECTOR('',#421,10.);
#125=VECTOR('',#428,13.5367705503984);
#126=VECTOR('',#435,10.);
#127=VECTOR('',#436,10.);
#128=VECTOR('',#437,10.);
#129=VECTOR('',#438,10.);
#130=VECTOR('',#441,10.);
#131=VECTOR('',#442,10.);
#132=VECTOR('',#443,10.);
#133=VECTOR('',#446,10.);
#134=VECTOR('',#447,10.);
#135=VECTOR('',#448,10.);
#136=VECTOR('',#451,10.);
#137=VECTOR('',#452,10.);
#138=VECTOR('',#457,10.);
#139=VECTOR('',#458,10.);
#140=VECTOR('',#459,10.);
#141=VECTOR('',#460,10.);
#142=VECTOR('',#463,10.);
#143=VECTOR('',#464,10.);
#144=VECTOR('',#465,10.);
#145=VECTOR('',#468,10.);
#146=VECTOR('',#469,10.);
#147=VECTOR('',#470,10.);
#148=VECTOR('',#473,10.);
#149=VECTOR('',#474,10.);
#150=VERTEX_POINT('',#481);
#151=VERTEX_POINT('',#482);
#152=VERTEX_POINT('',#484);
#153=VERTEX_POINT('',#486);
#154=VERTEX_POINT('',#490);
#155=VERTEX_POINT('',#492);
#156=VERTEX_POINT('',#496);
#157=VERTEX_POINT('',#498);
#158=VERTEX_POINT('',#502);
#159=VERTEX_POINT('',#504);
#160=VERTEX_POINT('',#508);
#161=VERTEX_POINT('',#510);
#162=VERTEX_POINT('',#518);
#163=VERTEX_POINT('',#520);
#164=VERTEX_POINT('',#525);
#165=VERTEX_POINT('',#526);
#166=VERTEX_POINT('',#528);
#167=VERTEX_POINT('',#530);
#168=VERTEX_POINT('',#534);
#169=VERTEX_POINT('',#536);
#170=VERTEX_POINT('',#540);
#171=VERTEX_POINT('',#542);
#172=VERTEX_POINT('',#550);
#173=VERTEX_POINT('',#551);
#174=VERTEX_POINT('',#553);
#175=VERTEX_POINT('',#555);
#176=VERTEX_POINT('',#559);
#177=VERTEX_POINT('',#561);
#178=VERTEX_POINT('',#565);
#179=VERTEX_POINT('',#567);
#180=EDGE_CURVE('',#150,#151,#64,.T.);
#181=EDGE_CURVE('',#150,#152,#65,.T.);
#182=EDGE_CURVE('',#152,#153,#66,.T.);
#183=EDGE_CURVE('',#151,#153,#67,.T.);
#184=EDGE_CURVE('',#154,#150,#68,.T.);
#185=EDGE_CURVE('',#154,#155,#69,.T.);
#186=EDGE_CURVE('',#155,#152,#70,.T.);
#187=EDGE_CURVE('',#156,#154,#71,.T.);
#188=EDGE_CURVE('',#156,#157,#72,.T.);
#189=EDGE_CURVE('',#157,#155,#73,.T.);
#190=EDGE_CURVE('',#158,#156,#74,.T.);
#191=EDGE_CURVE('',#158,#159,#75,.T.);
#192=EDGE_CURVE('',#159,#157,#76,.T.);
#193=EDGE_CURVE('',#160,#158,#77,.T.);
#194=EDGE_CURVE('',#160,#161,#78,.T.);
#195=EDGE_CURVE('',#161,#159,#79,.T.);
#196=EDGE_CURVE('',#151,#160,#80,.T.);
#197=EDGE_CURVE('',#153,#161,#81,.T.);
#198=EDGE_CURVE('',#162,#162,#18,.T.);
#199=EDGE_CURVE('',#162,#163,#82,.T.);
#200=EDGE_CURVE('',#163,#163,#19,.T.);
#201=EDGE_CURVE('',#164,#165,#83,.T.);
#202=EDGE_CURVE('',#164,#166,#84,.T.);
#203=EDGE_CURVE('',#166,#167,#85,.T.);
#204=EDGE_CURVE('',#165,#167,#86,.T.);
#205=EDGE_CURVE('',#168,#164,#87,.T.);
#206=EDGE_CURVE('',#168,#169,#88,.T.);
#207=EDGE_CURVE('',#169,#166,#89,.T.);
#208=EDGE_CURVE('',#170,#168,#90,.T.);
#209=EDGE_CURVE('',#170,#171,#91,.T.);
#210=EDGE_CURVE('',#171,#169,#92,.T.);
#211=EDGE_CURVE('',#165,#170,#93,.T.);
#212=EDGE_CURVE('',#167,#171,#94,.T.);
#213=EDGE_CURVE('',#172,#173,#95,.T.);
#214=EDGE_CURVE('',#172,#174,#96,.T.);
#215=EDGE_CURVE('',#175,#174,#97,.T.);
#216=EDGE_CURVE('',#173,#175,#98,.T.);
#217=EDGE_CURVE('',#173,#176,#99,.T.);
#218=EDGE_CURVE('',#177,#175,#100,.T.);
#219=EDGE_CURVE('',#176,#177,#101,.T.);
#220=EDGE_CURVE('',#176,#178,#102,.T.);
#221=EDGE_CURVE('',#179,#177,#103,.T.);
#222=EDGE_CURVE('',#178,#179,#104,.T.);
#223=EDGE_CURVE('',#178,#172,#105,.T.);
#224=EDGE_CURVE('',#174,#179,#106,.T.);
#225=ORIENTED_EDGE('',*,*,#180,.F.);
#226=ORIENTED_EDGE('',*,*,#181,.T.);
#227=ORIENTED_EDGE('',*,*,#182,.T.);
#228=ORIENTED_EDGE('',*,*,#183,.F.);
#229=ORIENTED_EDGE('',*,*,#184,.F.);
#230=ORIENTED_EDGE('',*,*,#185,.T.);
#231=ORIENTED_EDGE('',*,*,#186,.T.);
#232=ORIENTED_EDGE('',*,*,#181,.F.);
#233=ORIENTED_EDGE('',*,*,#187,.F.);
#234=ORIENTED_EDGE('',*,*,#188,.T.);
#235=ORIENTED_EDGE('',*,*,#189,.T.);
#236=ORIENTED_EDGE('',*,*,#185,.F.);
#237=ORIENTED_EDGE('',*,*,#190,.F.);
#238=ORIENTED_EDGE('',*,*,#191,.T.);
#239=ORIENTED_EDGE('',*,*,#192,.T.);
#240=ORIENTED_EDGE('',*,*,#188,.F.);
#241=ORIENTED_EDGE('',*,*,#193,.F.);
#242=ORIENTED_EDGE('',*,*,#194,.T.);
#243=ORIENTED_EDGE('',*,*,#195,.T.);
#244=ORIENTED_EDGE('',*,*,#191,.F.);
#245=ORIENTED_EDGE('',*,*,#196,.F.);
#246=ORIENTED_EDGE('',*,*,#183,.T.);
#247=ORIENTED_EDGE('',*,*,#197,.T.);
#248=ORIENTED_EDGE('',*,*,#194,.F.);
#249=ORIENTED_EDGE('',*,*,#197,.F.);
#250=ORIENTED_EDGE('',*,*,#182,.F.);
#251=ORIENTED_EDGE('',*,*,#186,.F.);
#252=ORIENTED_EDGE('',*,*,#189,.F.);
#253=ORIENTED_EDGE('',*,*,#192,.F.);
#254=ORIENTED_EDGE('',*,*,#195,.F.);
#255=ORIENTED_EDGE('',*,*,#198,.F.);
#256=ORIENTED_EDGE('',*,*,#199,.T.);
#257=ORIENTED_EDGE('',*,*,#200,.T.);
#258=ORIENTED_EDGE('',*,*,#199,.F.);
#259=ORIENTED_EDGE('',*,*,#200,.F.);
#260=ORIENTED_EDGE('',*,*,#201,.F.);
#261=ORIENTED_EDGE('',*,*,#202,.T.);
#262=ORIENTED_EDGE('',*,*,#203,.T.);
#263=ORIENTED_EDGE('',*,*,#204,.F.);
#264=ORIENTED_EDGE('',*,*,#205,.F.);
#265=ORIENTED_EDGE('',*,*,#206,.T.);
#266=ORIENTED_EDGE('',*,*,#207,.T.);
#267=ORIENTED_EDGE('',*,*,#202,.F.);
#268=ORIENTED_EDGE('',*,*,#208,.F.);
#269=ORIENTED_EDGE('',*,*,#209,.T.);
#270=ORIENTED_EDGE('',*,*,#210,.T.);
#271=ORIENTED_EDGE('',*,*,#206,.F.);
#272=ORIENTED_EDGE('',*,*,#211,.F.);
#273=ORIENTED_EDGE('',*,*,#204,.T.);
#274=ORIENTED_EDGE('',*,*,#212,.T.);
#275=ORIENTED_EDGE('',*,*,#209,.F.);
#276=ORIENTED_EDGE('',*,*,#212,.F.);
#277=ORIENTED_EDGE('',*,*,#203,.F.);
#278=ORIENTED_EDGE('',*,*,#207,.F.);
#279=ORIENTED_EDGE('',*,*,#210,.F.);
#280=ORIENTED_EDGE('',*,*,#213,.F.);
#281=ORIENTED_EDGE('',*,*,#214,.T.);
#282=ORIENTED_EDGE('',*,*,#215,.F.);
#283=ORIENTED_EDGE('',*,*,#216,.F.);
#284=ORIENTED_EDGE('',*,*,#217,.F.);
#285=ORIENTED_EDGE('',*,*,#216,.T.);
#286=ORIENTED_EDGE('',*,*,#218,.F.);
#287=ORIENTED_EDGE('',*,*,#219,.F.);
#288=ORIENTED_EDGE('',*,*,#220,.F.);
#289=ORIENTED_EDGE('',*,*,#219,.T.);
#290=ORIENTED_EDGE('',*,*,#221,.F.);
#291=ORIENTED_EDGE('',*,*,#222,.F.);
#292=ORIENTED_EDGE('',*,*,#223,.F.);
#293=ORIENTED_EDGE('',*,*,#222,.T.);
#294=ORIENTED_EDGE('',*,*,#224,.F.);
#295=ORIENTED_EDGE('',*,*,#214,.F.);
#296=ORIENTED_EDGE('',*,*,#224,.T.);
#297=ORIENTED_EDGE('',*,*,#221,.T.);
#298=ORIENTED_EDGE('',*,*,#218,.T.);
#299=ORIENTED_EDGE('',*,*,#215,.T.);
#300=ORIENTED_EDGE('',*,*,#180,.T.);
#301=ORIENTED_EDGE('',*,*,#196,.T.);
#302=ORIENTED_EDGE('',*,*,#193,.T.);
#303=ORIENTED_EDGE('',*,*,#190,.T.);
#304=ORIENTED_EDGE('',*,*,#187,.T.);
#305=ORIENTED_EDGE('',*,*,#184,.T.);
#306=ORIENTED_EDGE('',*,*,#198,.T.);
#307=ORIENTED_EDGE('',*,*,#201,.T.);
#308=ORIENTED_EDGE('',*,*,#211,.T.);
#309=ORIENTED_EDGE('',*,*,#208,.T.);
#310=ORIENTED_EDGE('',*,*,#205,.T.);
#311=ORIENTED_EDGE('',*,*,#223,.T.);
#312=ORIENTED_EDGE('',*,*,#213,.T.);
#313=ORIENTED_EDGE('',*,*,#217,.T.);
#314=ORIENTED_EDGE('',*,*,#220,.T.);
#315=PLANE('',#368);
#316=PLANE('',#369);
#317=PLANE('',#370);
#318=PLANE('',#371);
#319=PLANE('',#372);
#320=PLANE('',#373);
#321=PLANE('',#374);
#322=PLANE('',#378);
#323=PLANE('',#379);
#324=PLANE('',#380);
#325=PLANE('',#381);
#326=PLANE('',#382);
#327=PLANE('',#383);
#328=PLANE('',#384);
#329=PLANE('',#385);
#330=PLANE('',#386);
#331=PLANE('',#387);
#332=PLANE('',#388);
#333=PLANE('',#389);
#334=ADVANCED_FACE('',(#21),#315,.F.);
#335=ADVANCED_FACE('',(#22),#316,.F.);
#336=ADVANCED_FACE('',(#23),#317,.F.);
#337=ADVANCED_FACE('',(#24),#318,.F.);
#338=ADVANCED_FACE('',(#25),#319,.F.);
#339=ADVANCED_FACE('',(#26),#320,.F.);
#340=ADVANCED_FACE('',(#27),#321,.F.);
#341=ADVANCED_FACE('',(#28),#20,.F.);
#342=ADVANCED_FACE('',(#29),#322,.T.);
#343=ADVANCED_FACE('',(#30),#323,.F.);
#344=ADVANCED_FACE('',(#31),#324,.F.);
#345=ADVANCED_FACE('',(#32),#325,.F.);
#346=ADVANCED_FACE('',(#33),#326,.F.);
#347=ADVANCED_FACE('',(#34),#327,.F.);
#348=ADVANCED_FACE('',(#35),#328,.T.);
#349=ADVANCED_FACE('',(#36),#329,.T.);
#350=ADVANCED_FACE('',(#37),#330,.T.);
#351=ADVANCED_FACE('',(#38),#331,.T.);
#352=ADVANCED_FACE('',(#39,#15,#16,#17),#332,.T.);
#353=ADVANCED_FACE('',(#40),#333,.F.);
#354=CLOSED_SHELL('',(#334,#335,#336,#337,#338,#339,#340,#341,#342,#343,
#344,#345,#346,#347,#348,#349,#350,#351,#352,#353));
#355=DERIVED_UNIT_ELEMENT(#357,1.);
#356=DERIVED_UNIT_ELEMENT(#580,-3.);
#357=(
MASS_UNIT()
NAMED_UNIT(*)
SI_UNIT(.KILO.,.GRAM.)
);
#358=DERIVED_UNIT((#355,#356));
#359=MEASURE_REPRESENTATION_ITEM('density measure',
POSITIVE_RATIO_MEASURE(7850.),#358);
#360=PROPERTY_DEFINITION_REPRESENTATION(#365,#362);
#361=PROPERTY_DEFINITION_REPRESENTATION(#366,#363);
#362=REPRESENTATION('material name',(#364),#577);
#363=REPRESENTATION('density',(#359),#577);
#364=DESCRIPTIVE_REPRESENTATION_ITEM('Steel','Steel');
#365=PROPERTY_DEFINITION('material property','material name',#587);
#366=PROPERTY_DEFINITION('material property','density of part',#587);
#367=AXIS2_PLACEMENT_3D('placement',#479,#390,#391);
#368=AXIS2_PLACEMENT_3D('',#480,#392,#393);
#369=AXIS2_PLACEMENT_3D('',#489,#398,#399);
#370=AXIS2_PLACEMENT_3D('',#495,#403,#404);
#371=AXIS2_PLACEMENT_3D('',#501,#408,#409);
#372=AXIS2_PLACEMENT_3D('',#507,#413,#414);
#373=AXIS2_PLACEMENT_3D('',#513,#418,#419);
#374=AXIS2_PLACEMENT_3D('',#516,#422,#423);
#375=AXIS2_PLACEMENT_3D('',#517,#424,#425);
#376=AXIS2_PLACEMENT_3D('',#519,#426,#427);
#377=AXIS2_PLACEMENT_3D('',#522,#429,#430);
#378=AXIS2_PLACEMENT_3D('',#523,#431,#432);
#379=AXIS2_PLACEMENT_3D('',#524,#433,#434);
#380=AXIS2_PLACEMENT_3D('',#533,#439,#440);
#381=AXIS2_PLACEMENT_3D('',#539,#444,#445);
#382=AXIS2_PLACEMENT_3D('',#545,#449,#450);
#383=AXIS2_PLACEMENT_3D('',#548,#453,#454);
#384=AXIS2_PLACEMENT_3D('',#549,#455,#456);
#385=AXIS2_PLACEMENT_3D('',#558,#461,#462);
#386=AXIS2_PLACEMENT_3D('',#564,#466,#467);
#387=AXIS2_PLACEMENT_3D('',#570,#471,#472);
#388=AXIS2_PLACEMENT_3D('',#573,#475,#476);
#389=AXIS2_PLACEMENT_3D('',#574,#477,#478);
#390=DIRECTION('axis',(0.,0.,1.));
#391=DIRECTION('refdir',(1.,0.,0.));
#392=DIRECTION('center_axis',(0.938669759516728,0.344817462679615,0.));
#393=DIRECTION('ref_axis',(0.344817462679615,-0.938669759516728,0.));
#394=DIRECTION('',(0.344817462679615,-0.938669759516728,0.));
#395=DIRECTION('',(0.,0.,-1.));
#396=DIRECTION('',(0.344817462679615,-0.938669759516728,0.));
#397=DIRECTION('',(0.,0.,-1.));
#398=DIRECTION('center_axis',(-0.738766024783967,0.673961987522215,0.));
#399=DIRECTION('ref_axis',(0.673961987522215,0.738766024783967,0.));
#400=DIRECTION('',(0.673961987522215,0.738766024783967,0.));
#401=DIRECTION('',(0.,0.,-1.));
#402=DIRECTION('',(0.673961987522215,0.738766024783967,0.));
#403=DIRECTION('center_axis',(0.818556692462412,0.574425749096432,0.));
#404=DIRECTION('ref_axis',(0.574425749096432,-0.818556692462412,0.));
#405=DIRECTION('',(0.574425749096432,-0.818556692462412,0.));
#406=DIRECTION('',(0.,0.,-1.));
#407=DIRECTION('',(0.574425749096432,-0.818556692462412,0.));
#408=DIRECTION('center_axis',(-0.871983785385481,0.489534756707639,0.));
#409=DIRECTION('ref_axis',(0.489534756707639,0.871983785385481,0.));
#410=DIRECTION('',(0.489534756707639,0.871983785385481,0.));
#411=DIRECTION('',(0.,0.,-1.));
#412=DIRECTION('',(0.489534756707639,0.871983785385481,0.));
#413=DIRECTION('center_axis',(-0.36933562049683,-0.929296077379121,0.));
#414=DIRECTION('ref_axis',(-0.929296077379121,0.36933562049683,0.));
#415=DIRECTION('',(-0.929296077379121,0.36933562049683,0.));
#416=DIRECTION('',(0.,0.,-1.));
#417=DIRECTION('',(-0.929296077379121,0.36933562049683,0.));
#418=DIRECTION('center_axis',(0.907959384500451,-0.419058177461748,0.));
#419=DIRECTION('ref_axis',(-0.419058177461748,-0.907959384500451,0.));
#420=DIRECTION('',(-0.419058177461748,-0.907959384500451,0.));
#421=DIRECTION('',(-0.419058177461748,-0.907959384500451,0.));
#422=DIRECTION('center_axis',(0.,0.,-1.));
#423=DIRECTION('ref_axis',(-1.,0.,0.));
#424=DIRECTION('center_axis',(0.,0.,-1.));
#425=DIRECTION('ref_axis',(-1.,0.,0.));
#426=DIRECTION('center_axis',(0.,0.,-1.));
#427=DIRECTION('ref_axis',(-1.,0.,0.));
#428=DIRECTION('',(0.,0.,-1.));
#429=DIRECTION('center_axis',(0.,0.,-1.));
#430=DIRECTION('ref_axis',(-1.,0.,0.));
#431=DIRECTION('center_axis',(0.,0.,1.));
#432=DIRECTION('ref_axis',(-1.,0.,0.));
#433=DIRECTION('center_axis',(1.,0.,0.));
#434=DIRECTION('ref_axis',(0.,-1.,0.));
#435=DIRECTION('',(0.,-1.,0.));
#436=DIRECTION('',(0.,0.,-1.));
#437=DIRECTION('',(0.,-1.,0.));
#438=DIRECTION('',(0.,0.,-1.));
#439=DIRECTION('center_axis',(0.,1.,0.));
#440=DIRECTION('ref_axis',(1.,0.,0.));
#441=DIRECTION('',(1.,0.,0.));
#442=DIRECTION('',(0.,0.,-1.));
#443=DIRECTION('',(1.,0.,0.));
#444=DIRECTION('center_axis',(-1.,0.,0.));
#445=DIRECTION('ref_axis',(0.,1.,0.));
#446=DIRECTION('',(0.,1.,0.));
#447=DIRECTION('',(0.,0.,-1.));
#448=DIRECTION('',(0.,1.,0.));
#449=DIRECTION('center_axis',(0.,-1.,0.));
#450=DIRECTION('ref_axis',(-1.,0.,0.));
#451=DIRECTION('',(-1.,0.,0.));
#452=DIRECTION('',(-1.,0.,0.));
#453=DIRECTION('center_axis',(0.,0.,-1.));
#454=DIRECTION('ref_axis',(-1.,0.,0.));
#455=DIRECTION('center_axis',(-1.,0.,0.));
#456=DIRECTION('ref_axis',(0.,-1.,0.));
#457=DIRECTION('',(0.,1.,0.));
#458=DIRECTION('',(0.,0.,1.));
#459=DIRECTION('',(0.,-1.,0.));
#460=DIRECTION('',(0.,0.,1.));
#461=DIRECTION('center_axis',(0.,1.,0.));
#462=DIRECTION('ref_axis',(-1.,0.,0.));
#463=DIRECTION('',(1.,0.,0.));
#464=DIRECTION('',(-1.,0.,0.));
#465=DIRECTION('',(0.,0.,1.));
#466=DIRECTION('center_axis',(1.,0.,0.));
#467=DIRECTION('ref_axis',(0.,1.,0.));
#468=DIRECTION('',(0.,-1.,0.));
#469=DIRECTION('',(0.,1.,0.));
#470=DIRECTION('',(0.,0.,1.));
#471=DIRECTION('center_axis',(0.,-1.,0.));
#472=DIRECTION('ref_axis',(1.,0.,0.));
#473=DIRECTION('',(-1.,0.,0.));
#474=DIRECTION('',(1.,0.,0.));
#475=DIRECTION('center_axis',(0.,0.,1.));
#476=DIRECTION('ref_axis',(1.,0.,0.));
#477=DIRECTION('center_axis',(0.,0.,1.));
#478=DIRECTION('ref_axis',(1.,0.,0.));
#479=CARTESIAN_POINT('',(0.,0.,0.));
#480=CARTESIAN_POINT('Origin',(81.8609236213684,42.9282717088179,40.));
#481=CARTESIAN_POINT('',(81.8609236213684,42.9282717088179,40.));
#482=CARTESIAN_POINT('',(88.4463795648054,25.0011971961282,40.));
#483=CARTESIAN_POINT('',(81.3819871798737,44.2320431328868,40.));
#484=CARTESIAN_POINT('',(81.8609236213684,42.9282717088179,30.));
#485=CARTESIAN_POINT('',(81.8609236213684,42.9282717088179,40.));
#486=CARTESIAN_POINT('',(88.4463795648054,25.0011971961282,30.));
#487=CARTESIAN_POINT('',(81.8609236213684,42.9282717088179,30.));
#488=CARTESIAN_POINT('',(88.4463795648054,25.0011971961282,40.));
#489=CARTESIAN_POINT('Origin',(72.3485983697371,32.5012997983759,40.));
#490=CARTESIAN_POINT('',(72.3485983697371,32.5012997983759,40.));
#491=CARTESIAN_POINT('',(59.7276960856656,18.6668492177591,40.));
#492=CARTESIAN_POINT('',(72.3485983697371,32.5012997983759,30.));
#493=CARTESIAN_POINT('',(72.3485983697371,32.5012997983759,40.));
#494=CARTESIAN_POINT('',(72.3485983697371,32.5012997983759,30.));
#495=CARTESIAN_POINT('Origin',(65.0314250992514,42.9282717088179,40.));
#496=CARTESIAN_POINT('',(65.0314250992514,42.9282717088179,40.));
#497=CARTESIAN_POINT('',(62.6418787327122,46.3333752811363,40.));
#498=CARTESIAN_POINT('',(65.0314250992514,42.9282717088179,30.));
#499=CARTESIAN_POINT('',(65.0314250992514,42.9282717088179,40.));
#500=CARTESIAN_POINT('',(65.0314250992514,42.9282717088179,30.));
#501=CARTESIAN_POINT('Origin',(53.3239478664744,22.0743278879339,40.));
#502=CARTESIAN_POINT('',(53.3239478664744,22.0743278879339,40.));
#503=CARTESIAN_POINT('',(50.5545473653205,17.1413332452535,40.));
#504=CARTESIAN_POINT('',(53.3239478664744,22.0743278879339,30.));
#505=CARTESIAN_POINT('',(53.3239478664744,22.0743278879339,40.));
#506=CARTESIAN_POINT('',(53.3239478664744,22.0743278879339,30.));
#507=CARTESIAN_POINT('Origin',(81.8609236213684,10.7327093186812,40.));
#508=CARTESIAN_POINT('',(81.8609236213684,10.7327093186812,40.));
#509=CARTESIAN_POINT('',(54.8602019620473,21.4637653627703,40.));
#510=CARTESIAN_POINT('',(81.8609236213684,10.7327093186812,30.));
#511=CARTESIAN_POINT('',(81.8609236213684,10.7327093186812,40.));
#512=CARTESIAN_POINT('',(81.8609236213684,10.7327093186812,30.));
#513=CARTESIAN_POINT('Origin',(88.4463795648054,25.0011971961282,40.));
#514=CARTESIAN_POINT('',(82.8752501852176,12.9304168736879,40.));
#515=CARTESIAN_POINT('',(88.4463795648054,25.0011971961282,30.));
#516=CARTESIAN_POINT('Origin',(70.8851637156399,26.8304905137495,30.));
#517=CARTESIAN_POINT('Origin',(22.2259614669106,25.,40.));
#518=CARTESIAN_POINT('',(35.762732017309,25.,40.));
#519=CARTESIAN_POINT('Origin',(22.2259614669106,25.,40.));
#520=CARTESIAN_POINT('',(35.762732017309,25.,30.));
#521=CARTESIAN_POINT('',(35.762732017309,25.,40.));
#522=CARTESIAN_POINT('Origin',(22.2259614669106,25.,30.));
#523=CARTESIAN_POINT('Origin',(22.2259614669106,25.,30.));
#524=CARTESIAN_POINT('Origin',(-10.,40.,40.));
#525=CARTESIAN_POINT('',(-10.,40.,40.));
#526=CARTESIAN_POINT('',(-10.,10.,40.));
#527=CARTESIAN_POINT('',(-10.,32.5,40.));
#528=CARTESIAN_POINT('',(-10.,40.,30.));
#529=CARTESIAN_POINT('',(-10.,40.,40.));
#530=CARTESIAN_POINT('',(-10.,10.,30.));
#531=CARTESIAN_POINT('',(-10.,40.,30.));
#532=CARTESIAN_POINT('',(-10.,10.,40.));
#533=CARTESIAN_POINT('Origin',(-40.,40.,40.));
#534=CARTESIAN_POINT('',(-40.,40.,40.));
#535=CARTESIAN_POINT('',(-7.5,40.,40.));
#536=CARTESIAN_POINT('',(-40.,40.,30.));
#537=CARTESIAN_POINT('',(-40.,40.,40.));
#538=CARTESIAN_POINT('',(-40.,40.,30.));
#539=CARTESIAN_POINT('Origin',(-40.,10.,40.));
#540=CARTESIAN_POINT('',(-40.,10.,40.));
#541=CARTESIAN_POINT('',(-40.,17.5,40.));
#542=CARTESIAN_POINT('',(-40.,10.,30.));
#543=CARTESIAN_POINT('',(-40.,10.,40.));
#544=CARTESIAN_POINT('',(-40.,10.,30.));
#545=CARTESIAN_POINT('Origin',(-10.,10.,40.));
#546=CARTESIAN_POINT('',(7.5,10.,40.));
#547=CARTESIAN_POINT('',(-10.,10.,30.));
#548=CARTESIAN_POINT('Origin',(-25.,25.,30.));
#549=CARTESIAN_POINT('Origin',(-50.,50.,0.));
#550=CARTESIAN_POINT('',(-50.,0.,0.));
#551=CARTESIAN_POINT('',(-50.,50.,0.));
#552=CARTESIAN_POINT('',(-50.,0.,0.));
#553=CARTESIAN_POINT('',(-50.,0.,40.));
#554=CARTESIAN_POINT('',(-50.,0.,0.));
#555=CARTESIAN_POINT('',(-50.,50.,40.));
#556=CARTESIAN_POINT('',(-50.,0.,40.));
#557=CARTESIAN_POINT('',(-50.,50.,0.));
#558=CARTESIAN_POINT('Origin',(100.,50.,0.));
#559=CARTESIAN_POINT('',(100.,50.,0.));
#560=CARTESIAN_POINT('',(-50.,50.,0.));
#561=CARTESIAN_POINT('',(100.,50.,40.));
#562=CARTESIAN_POINT('',(-50.,50.,40.));
#563=CARTESIAN_POINT('',(100.,50.,0.));
#564=CARTESIAN_POINT('Origin',(100.,0.,0.));
#565=CARTESIAN_POINT('',(100.,0.,0.));
#566=CARTESIAN_POINT('',(100.,50.,0.));
#567=CARTESIAN_POINT('',(100.,0.,40.));
#568=CARTESIAN_POINT('',(100.,50.,40.));
#569=CARTESIAN_POINT('',(100.,0.,0.));
#570=CARTESIAN_POINT('Origin',(-50.,0.,0.));
#571=CARTESIAN_POINT('',(100.,0.,0.));
#572=CARTESIAN_POINT('',(100.,0.,40.));
#573=CARTESIAN_POINT('Origin',(25.,25.,40.));
#574=CARTESIAN_POINT('Origin',(25.,25.,0.));
#575=UNCERTAINTY_MEASURE_WITH_UNIT(LENGTH_MEASURE(0.01),#579,
'DISTANCE_ACCURACY_VALUE',
'Maximum model space distance between geometric entities at asserted c
onnectivities');
#576=UNCERTAINTY_MEASURE_WITH_UNIT(LENGTH_MEASURE(0.01),#579,
'DISTANCE_ACCURACY_VALUE',
'Maximum model space distance between geometric entities at asserted c
onnectivities');
#577=(
GEOMETRIC_REPRESENTATION_CONTEXT(3)
GLOBAL_UNCERTAINTY_ASSIGNED_CONTEXT((#575))
GLOBAL_UNIT_ASSIGNED_CONTEXT((#579,#581,#582))
REPRESENTATION_CONTEXT('','3D')
);
#578=(
GEOMETRIC_REPRESENTATION_CONTEXT(3)
GLOBAL_UNCERTAINTY_ASSIGNED_CONTEXT((#576))
GLOBAL_UNIT_ASSIGNED_CONTEXT((#579,#581,#582))
REPRESENTATION_CONTEXT('','3D')
);
#579=(
LENGTH_UNIT()
NAMED_UNIT(*)
SI_UNIT(.MILLI.,.METRE.)
);
#580=(
LENGTH_UNIT()
NAMED_UNIT(*)
SI_UNIT($,.METRE.)
);
#581=(
NAMED_UNIT(*)
PLANE_ANGLE_UNIT()
SI_UNIT($,.RADIAN.)
);
#582=(
NAMED_UNIT(*)
SI_UNIT($,.STERADIAN.)
SOLID_ANGLE_UNIT()
);
#583=SHAPE_DEFINITION_REPRESENTATION(#584,#585);
#584=PRODUCT_DEFINITION_SHAPE('',$,#587);
#585=SHAPE_REPRESENTATION('',(#367),#577);
#586=PRODUCT_DEFINITION_CONTEXT('part definition',#591,'design');
#587=PRODUCT_DEFINITION('(Unsaved)','(Unsaved)',#588,#586);
#588=PRODUCT_DEFINITION_FORMATION('',$,#593);
#589=PRODUCT_RELATED_PRODUCT_CATEGORY('(Unsaved)','(Unsaved)',(#593));
#590=APPLICATION_PROTOCOL_DEFINITION('international standard',
'automotive_design',2009,#591);
#591=APPLICATION_CONTEXT(
'Core Data for Automotive Mechanical Design Process');
#592=PRODUCT_CONTEXT('part definition',#591,'mechanical');
#593=PRODUCT('(Unsaved)','(Unsaved)',$,(#592));
#594=PRESENTATION_STYLE_ASSIGNMENT((#595));
#595=SURFACE_STYLE_USAGE(.BOTH.,#596);
#596=SURFACE_SIDE_STYLE('',(#597));
#597=SURFACE_STYLE_FILL_AREA(#598);
#598=FILL_AREA_STYLE('Steel - Satin',(#599));
#599=FILL_AREA_STYLE_COLOUR('Steel - Satin',#600);
#600=COLOUR_RGB('Steel - Satin',0.627450980392157,0.627450980392157,0.627450980392157);
ENDSEC;
END-ISO-10303-21;
