ISO-10303-21;
HEADER;
/* Generated by software containing ST-Developer
 * from STEP Tools, Inc. (www.steptools.com) 
 */

FILE_DESCRIPTION(
/* description */ (''),
/* implementation_level */ '2;1');

FILE_NAME(
/* name */ 
'D:/E/projects/jgl/CNN/BRepNet/tests/test_data/simple_solids/three_con
vex_edge.step',
/* time_stamp */ '2021-04-22T10:59:37+01:00',
/* author */ (''),
/* organization */ (''),
/* preprocessor_version */ 'ST-DEVELOPER v18.1',
/* originating_system */ 'Autodesk Translation Framework v10.6.0.1341',

/* authorisation */ '');

FILE_SCHEMA (('AUTOMOTIVE_DESIGN { 1 0 10303 214 3 1 1 }'));
ENDSEC;

DATA;
#10=MECHANICAL_DESIGN_GEOMETRIC_PRESENTATION_REPRESENTATION('',(#13),#317);
#11=SHAPE_REPRESENTATION_RELATIONSHIP('SRR','None',#324,#12);
#12=ADVANCED_BREP_SHAPE_REPRESENTATION('',(#14),#316);
#13=STYLED_ITEM('',(#333),#14);
#14=MANIFOLD_SOLID_BREP('Body1',#189);
#15=PLANE('',#206);
#16=PLANE('',#207);
#17=PLANE('',#208);
#18=PLANE('',#209);
#19=PLANE('',#210);
#20=PLANE('',#211);
#21=PLANE('',#212);
#22=PLANE('',#213);
#23=PLANE('',#214);
#24=FACE_OUTER_BOUND('',#34,.T.);
#25=FACE_OUTER_BOUND('',#35,.T.);
#26=FACE_OUTER_BOUND('',#36,.T.);
#27=FACE_OUTER_BOUND('',#37,.T.);
#28=FACE_OUTER_BOUND('',#38,.T.);
#29=FACE_OUTER_BOUND('',#39,.T.);
#30=FACE_OUTER_BOUND('',#40,.T.);
#31=FACE_OUTER_BOUND('',#41,.T.);
#32=FACE_OUTER_BOUND('',#42,.T.);
#33=FACE_OUTER_BOUND('',#43,.T.);
#34=EDGE_LOOP('',(#130,#131,#132,#133));
#35=EDGE_LOOP('',(#134,#135,#136,#137,#138));
#36=EDGE_LOOP('',(#139,#140,#141,#142));
#37=EDGE_LOOP('',(#143,#144,#145,#146));
#38=EDGE_LOOP('',(#147,#148,#149,#150,#151,#152,#153));
#39=EDGE_LOOP('',(#154,#155,#156,#157,#158,#159));
#40=EDGE_LOOP('',(#160,#161,#162,#163));
#41=EDGE_LOOP('',(#164,#165,#166,#167,#168,#169));
#42=EDGE_LOOP('',(#170,#171,#172,#173));
#43=EDGE_LOOP('',(#174,#175,#176,#177));
#44=LINE('',#269,#66);
#45=LINE('',#272,#67);
#46=LINE('',#275,#68);
#47=LINE('',#277,#69);
#48=LINE('',#279,#70);
#49=LINE('',#280,#71);
#50=LINE('',#283,#72);
#51=LINE('',#284,#73);
#52=LINE('',#287,#74);
#53=LINE('',#288,#75);
#54=LINE('',#291,#76);
#55=LINE('',#293,#77);
#56=LINE('',#295,#78);
#57=LINE('',#296,#79);
#58=LINE('',#299,#80);
#59=LINE('',#301,#81);
#60=LINE('',#302,#82);
#61=LINE('',#305,#83);
#62=LINE('',#306,#84);
#63=LINE('',#309,#85);
#64=LINE('',#310,#86);
#65=LINE('',#312,#87);
#66=VECTOR('',#221,10.);
#67=VECTOR('',#224,10.);
#68=VECTOR('',#227,10.);
#69=VECTOR('',#228,10.);
#70=VECTOR('',#229,10.);
#71=VECTOR('',#230,10.);
#72=VECTOR('',#233,10.);
#73=VECTOR('',#234,10.);
#74=VECTOR('',#237,10.);
#75=VECTOR('',#238,10.);
#76=VECTOR('',#241,10.);
#77=VECTOR('',#242,10.);
#78=VECTOR('',#243,10.);
#79=VECTOR('',#244,10.);
#80=VECTOR('',#247,10.);
#81=VECTOR('',#248,10.);
#82=VECTOR('',#249,10.);
#83=VECTOR('',#252,10.);
#84=VECTOR('',#253,10.);
#85=VECTOR('',#256,10.);
#86=VECTOR('',#257,10.);
#87=VECTOR('',#260,10.);
#88=CIRCLE('',#204,20.);
#89=CIRCLE('',#205,20.);
#90=VERTEX_POINT('',#265);
#91=VERTEX_POINT('',#266);
#92=VERTEX_POINT('',#268);
#93=VERTEX_POINT('',#270);
#94=VERTEX_POINT('',#274);
#95=VERTEX_POINT('',#276);
#96=VERTEX_POINT('',#278);
#97=VERTEX_POINT('',#282);
#98=VERTEX_POINT('',#286);
#99=VERTEX_POINT('',#290);
#100=VERTEX_POINT('',#292);
#101=VERTEX_POINT('',#294);
#102=VERTEX_POINT('',#298);
#103=VERTEX_POINT('',#300);
#104=VERTEX_POINT('',#304);
#105=VERTEX_POINT('',#308);
#106=EDGE_CURVE('',#90,#91,#88,.T.);
#107=EDGE_CURVE('',#90,#92,#44,.T.);
#108=EDGE_CURVE('',#92,#93,#89,.T.);
#109=EDGE_CURVE('',#93,#91,#45,.T.);
#110=EDGE_CURVE('',#94,#91,#46,.T.);
#111=EDGE_CURVE('',#95,#94,#47,.T.);
#112=EDGE_CURVE('',#96,#95,#48,.T.);
#113=EDGE_CURVE('',#90,#96,#49,.T.);
#114=EDGE_CURVE('',#97,#93,#50,.T.);
#115=EDGE_CURVE('',#94,#97,#51,.T.);
#116=EDGE_CURVE('',#98,#96,#52,.T.);
#117=EDGE_CURVE('',#92,#98,#53,.T.);
#118=EDGE_CURVE('',#98,#99,#54,.T.);
#119=EDGE_CURVE('',#99,#100,#55,.T.);
#120=EDGE_CURVE('',#100,#101,#56,.T.);
#121=EDGE_CURVE('',#101,#97,#57,.T.);
#122=EDGE_CURVE('',#102,#95,#58,.T.);
#123=EDGE_CURVE('',#103,#102,#59,.T.);
#124=EDGE_CURVE('',#103,#99,#60,.T.);
#125=EDGE_CURVE('',#104,#103,#61,.T.);
#126=EDGE_CURVE('',#104,#100,#62,.T.);
#127=EDGE_CURVE('',#105,#101,#63,.T.);
#128=EDGE_CURVE('',#102,#105,#64,.T.);
#129=EDGE_CURVE('',#105,#104,#65,.T.);
#130=ORIENTED_EDGE('',*,*,#106,.F.);
#131=ORIENTED_EDGE('',*,*,#107,.T.);
#132=ORIENTED_EDGE('',*,*,#108,.T.);
#133=ORIENTED_EDGE('',*,*,#109,.T.);
#134=ORIENTED_EDGE('',*,*,#106,.T.);
#135=ORIENTED_EDGE('',*,*,#110,.F.);
#136=ORIENTED_EDGE('',*,*,#111,.F.);
#137=ORIENTED_EDGE('',*,*,#112,.F.);
#138=ORIENTED_EDGE('',*,*,#113,.F.);
#139=ORIENTED_EDGE('',*,*,#109,.F.);
#140=ORIENTED_EDGE('',*,*,#114,.F.);
#141=ORIENTED_EDGE('',*,*,#115,.F.);
#142=ORIENTED_EDGE('',*,*,#110,.T.);
#143=ORIENTED_EDGE('',*,*,#107,.F.);
#144=ORIENTED_EDGE('',*,*,#113,.T.);
#145=ORIENTED_EDGE('',*,*,#116,.F.);
#146=ORIENTED_EDGE('',*,*,#117,.F.);
#147=ORIENTED_EDGE('',*,*,#114,.T.);
#148=ORIENTED_EDGE('',*,*,#108,.F.);
#149=ORIENTED_EDGE('',*,*,#117,.T.);
#150=ORIENTED_EDGE('',*,*,#118,.T.);
#151=ORIENTED_EDGE('',*,*,#119,.T.);
#152=ORIENTED_EDGE('',*,*,#120,.T.);
#153=ORIENTED_EDGE('',*,*,#121,.T.);
#154=ORIENTED_EDGE('',*,*,#116,.T.);
#155=ORIENTED_EDGE('',*,*,#112,.T.);
#156=ORIENTED_EDGE('',*,*,#122,.F.);
#157=ORIENTED_EDGE('',*,*,#123,.F.);
#158=ORIENTED_EDGE('',*,*,#124,.T.);
#159=ORIENTED_EDGE('',*,*,#118,.F.);
#160=ORIENTED_EDGE('',*,*,#125,.F.);
#161=ORIENTED_EDGE('',*,*,#126,.T.);
#162=ORIENTED_EDGE('',*,*,#119,.F.);
#163=ORIENTED_EDGE('',*,*,#124,.F.);
#164=ORIENTED_EDGE('',*,*,#115,.T.);
#165=ORIENTED_EDGE('',*,*,#121,.F.);
#166=ORIENTED_EDGE('',*,*,#127,.F.);
#167=ORIENTED_EDGE('',*,*,#128,.F.);
#168=ORIENTED_EDGE('',*,*,#122,.T.);
#169=ORIENTED_EDGE('',*,*,#111,.T.);
#170=ORIENTED_EDGE('',*,*,#129,.F.);
#171=ORIENTED_EDGE('',*,*,#127,.T.);
#172=ORIENTED_EDGE('',*,*,#120,.F.);
#173=ORIENTED_EDGE('',*,*,#126,.F.);
#174=ORIENTED_EDGE('',*,*,#129,.T.);
#175=ORIENTED_EDGE('',*,*,#125,.T.);
#176=ORIENTED_EDGE('',*,*,#123,.T.);
#177=ORIENTED_EDGE('',*,*,#128,.T.);
#178=CYLINDRICAL_SURFACE('',#203,20.);
#179=ADVANCED_FACE('',(#24),#178,.F.);
#180=ADVANCED_FACE('',(#25),#15,.F.);
#181=ADVANCED_FACE('',(#26),#16,.F.);
#182=ADVANCED_FACE('',(#27),#17,.F.);
#183=ADVANCED_FACE('',(#28),#18,.T.);
#184=ADVANCED_FACE('',(#29),#19,.T.);
#185=ADVANCED_FACE('',(#30),#20,.T.);
#186=ADVANCED_FACE('',(#31),#21,.T.);
#187=ADVANCED_FACE('',(#32),#22,.T.);
#188=ADVANCED_FACE('',(#33),#23,.F.);
#189=CLOSED_SHELL('',(#179,#180,#181,#182,#183,#184,#185,#186,#187,#188));
#190=DERIVED_UNIT_ELEMENT(#192,1.);
#191=DERIVED_UNIT_ELEMENT(#319,-3.);
#192=(
MASS_UNIT()
NAMED_UNIT(*)
SI_UNIT(.KILO.,.GRAM.)
);
#193=DERIVED_UNIT((#190,#191));
#194=MEASURE_REPRESENTATION_ITEM('density measure',
POSITIVE_RATIO_MEASURE(7850.),#193);
#195=PROPERTY_DEFINITION_REPRESENTATION(#200,#197);
#196=PROPERTY_DEFINITION_REPRESENTATION(#201,#198);
#197=REPRESENTATION('material name',(#199),#316);
#198=REPRESENTATION('density',(#194),#316);
#199=DESCRIPTIVE_REPRESENTATION_ITEM('Steel','Steel');
#200=PROPERTY_DEFINITION('material property','material name',#326);
#201=PROPERTY_DEFINITION('material property','density of part',#326);
#202=AXIS2_PLACEMENT_3D('placement',#263,#215,#216);
#203=AXIS2_PLACEMENT_3D('',#264,#217,#218);
#204=AXIS2_PLACEMENT_3D('',#267,#219,#220);
#205=AXIS2_PLACEMENT_3D('',#271,#222,#223);
#206=AXIS2_PLACEMENT_3D('',#273,#225,#226);
#207=AXIS2_PLACEMENT_3D('',#281,#231,#232);
#208=AXIS2_PLACEMENT_3D('',#285,#235,#236);
#209=AXIS2_PLACEMENT_3D('',#289,#239,#240);
#210=AXIS2_PLACEMENT_3D('',#297,#245,#246);
#211=AXIS2_PLACEMENT_3D('',#303,#250,#251);
#212=AXIS2_PLACEMENT_3D('',#307,#254,#255);
#213=AXIS2_PLACEMENT_3D('',#311,#258,#259);
#214=AXIS2_PLACEMENT_3D('',#313,#261,#262);
#215=DIRECTION('axis',(0.,0.,1.));
#216=DIRECTION('refdir',(1.,0.,0.));
#217=DIRECTION('center_axis',(0.,0.,-1.));
#218=DIRECTION('ref_axis',(-0.707106781186547,-0.707106781186547,0.));
#219=DIRECTION('center_axis',(0.,0.,1.));
#220=DIRECTION('ref_axis',(-0.707106781186547,-0.707106781186547,0.));
#221=DIRECTION('',(0.,0.,1.));
#222=DIRECTION('center_axis',(0.,0.,1.));
#223=DIRECTION('ref_axis',(-0.707106781186547,-0.707106781186547,0.));
#224=DIRECTION('',(0.,0.,-1.));
#225=DIRECTION('center_axis',(0.,0.,-1.));
#226=DIRECTION('ref_axis',(-1.,0.,0.));
#227=DIRECTION('',(-1.,0.,0.));
#228=DIRECTION('',(0.,-1.,0.));
#229=DIRECTION('',(1.,0.,0.));
#230=DIRECTION('',(0.,1.,0.));
#231=DIRECTION('center_axis',(0.,-1.,0.));
#232=DIRECTION('ref_axis',(-1.,0.,0.));
#233=DIRECTION('',(-1.,0.,0.));
#234=DIRECTION('',(0.,0.,1.));
#235=DIRECTION('center_axis',(-1.,0.,0.));
#236=DIRECTION('ref_axis',(0.,1.,0.));
#237=DIRECTION('',(0.,0.,-1.));
#238=DIRECTION('',(0.,1.,0.));
#239=DIRECTION('center_axis',(0.,0.,1.));
#240=DIRECTION('ref_axis',(1.,0.,0.));
#241=DIRECTION('',(-1.,0.,0.));
#242=DIRECTION('',(0.,-1.,0.));
#243=DIRECTION('',(1.,0.,0.));
#244=DIRECTION('',(0.,1.,0.));
#245=DIRECTION('center_axis',(0.,1.,0.));
#246=DIRECTION('ref_axis',(-1.,0.,0.));
#247=DIRECTION('',(0.,0.,1.));
#248=DIRECTION('',(1.,0.,0.));
#249=DIRECTION('',(0.,0.,1.));
#250=DIRECTION('center_axis',(-1.,0.,0.));
#251=DIRECTION('ref_axis',(0.,-1.,0.));
#252=DIRECTION('',(0.,1.,0.));
#253=DIRECTION('',(0.,0.,1.));
#254=DIRECTION('center_axis',(1.,0.,0.));
#255=DIRECTION('ref_axis',(0.,1.,0.));
#256=DIRECTION('',(0.,0.,1.));
#257=DIRECTION('',(0.,-1.,0.));
#258=DIRECTION('center_axis',(0.,-1.,0.));
#259=DIRECTION('ref_axis',(1.,0.,0.));
#260=DIRECTION('',(-1.,0.,0.));
#261=DIRECTION('center_axis',(0.,0.,1.));
#262=DIRECTION('ref_axis',(1.,0.,0.));
#263=CARTESIAN_POINT('',(0.,0.,0.));
#264=CARTESIAN_POINT('Origin',(40.,40.,30.));
#265=CARTESIAN_POINT('',(20.,40.,10.));
#266=CARTESIAN_POINT('',(40.,20.,10.));
#267=CARTESIAN_POINT('Origin',(40.,40.,10.));
#268=CARTESIAN_POINT('',(20.,40.,30.));
#269=CARTESIAN_POINT('',(20.,40.,30.));
#270=CARTESIAN_POINT('',(40.,20.,30.));
#271=CARTESIAN_POINT('Origin',(40.,40.,30.));
#272=CARTESIAN_POINT('',(40.,20.,30.));
#273=CARTESIAN_POINT('Origin',(35.,35.,10.));
#274=CARTESIAN_POINT('',(50.,20.,10.));
#275=CARTESIAN_POINT('',(20.,20.,10.));
#276=CARTESIAN_POINT('',(50.,50.,10.));
#277=CARTESIAN_POINT('',(50.,17.5,10.));
#278=CARTESIAN_POINT('',(20.,50.,10.));
#279=CARTESIAN_POINT('',(42.5,50.,10.));
#280=CARTESIAN_POINT('',(20.,50.,10.));
#281=CARTESIAN_POINT('Origin',(50.,20.,30.));
#282=CARTESIAN_POINT('',(50.,20.,30.));
#283=CARTESIAN_POINT('',(37.5,20.,30.));
#284=CARTESIAN_POINT('',(50.,20.,15.));
#285=CARTESIAN_POINT('Origin',(20.,20.,30.));
#286=CARTESIAN_POINT('',(20.,50.,30.));
#287=CARTESIAN_POINT('',(20.,50.,15.));
#288=CARTESIAN_POINT('',(20.,22.5,30.));
#289=CARTESIAN_POINT('Origin',(25.,25.,30.));
#290=CARTESIAN_POINT('',(0.,50.,30.));
#291=CARTESIAN_POINT('',(0.,50.,30.));
#292=CARTESIAN_POINT('',(0.,0.,30.));
#293=CARTESIAN_POINT('',(0.,0.,30.));
#294=CARTESIAN_POINT('',(50.,0.,30.));
#295=CARTESIAN_POINT('',(50.,0.,30.));
#296=CARTESIAN_POINT('',(50.,50.,30.));
#297=CARTESIAN_POINT('Origin',(50.,50.,0.));
#298=CARTESIAN_POINT('',(50.,50.,0.));
#299=CARTESIAN_POINT('',(50.,50.,0.));
#300=CARTESIAN_POINT('',(0.,50.,0.));
#301=CARTESIAN_POINT('',(0.,50.,0.));
#302=CARTESIAN_POINT('',(0.,50.,0.));
#303=CARTESIAN_POINT('Origin',(0.,50.,0.));
#304=CARTESIAN_POINT('',(0.,0.,0.));
#305=CARTESIAN_POINT('',(0.,0.,0.));
#306=CARTESIAN_POINT('',(0.,0.,0.));
#307=CARTESIAN_POINT('Origin',(50.,0.,0.));
#308=CARTESIAN_POINT('',(50.,0.,0.));
#309=CARTESIAN_POINT('',(50.,0.,0.));
#310=CARTESIAN_POINT('',(50.,50.,0.));
#311=CARTESIAN_POINT('Origin',(0.,0.,0.));
#312=CARTESIAN_POINT('',(50.,0.,0.));
#313=CARTESIAN_POINT('Origin',(25.,25.,0.));
#314=UNCERTAINTY_MEASURE_WITH_UNIT(LENGTH_MEASURE(0.01),#318,
'DISTANCE_ACCURACY_VALUE',
'Maximum model space distance between geometric entities at asserted c
onnectivities');
#315=UNCERTAINTY_MEASURE_WITH_UNIT(LENGTH_MEASURE(0.01),#318,
'DISTANCE_ACCURACY_VALUE',
'Maximum model space distance between geometric entities at asserted c
onnectivities');
#316=(
GEOMETRIC_REPRESENTATION_CONTEXT(3)
GLOBAL_UNCERTAINTY_ASSIGNED_CONTEXT((#314))
GLOBAL_UNIT_ASSIGNED_CONTEXT((#318,#320,#321))
REPRESENTATION_CONTEXT('','3D')
);
#317=(
GEOMETRIC_REPRESENTATION_CONTEXT(3)
GLOBAL_UNCERTAINTY_ASSIGNED_CONTEXT((#315))
GLOBAL_UNIT_ASSIGNED_CONTEXT((#318,#320,#321))
REPRESENTATION_CONTEXT('','3D')
);
#318=(
LENGTH_UNIT()
NAMED_UNIT(*)
SI_UNIT(.MILLI.,.METRE.)
);
#319=(
LENGTH_UNIT()
NAMED_UNIT(*)
SI_UNIT($,.METRE.)
);
#320=(
NAMED_UNIT(*)
PLANE_ANGLE_UNIT()
SI_UNIT($,.RADIAN.)
);
#321=(
NAMED_UNIT(*)
SI_UNIT($,.STERADIAN.)
SOLID_ANGLE_UNIT()
);
#322=SHAPE_DEFINITION_REPRESENTATION(#323,#324);
#323=PRODUCT_DEFINITION_SHAPE('',$,#326);
#324=SHAPE_REPRESENTATION('',(#202),#316);
#325=PRODUCT_DEFINITION_CONTEXT('part definition',#330,'design');
#326=PRODUCT_DEFINITION('(Unsaved)','(Unsaved)',#327,#325);
#327=PRODUCT_DEFINITION_FORMATION('',$,#332);
#328=PRODUCT_RELATED_PRODUCT_CATEGORY('(Unsaved)','(Unsaved)',(#332));
#329=APPLICATION_PROTOCOL_DEFINITION('international standard',
'automotive_design',2009,#330);
#330=APPLICATION_CONTEXT(
'Core Data for Automotive Mechanical Design Process');
#331=PRODUCT_CONTEXT('part definition',#330,'mechanical');
#332=PRODUCT('(Unsaved)','(Unsaved)',$,(#331));
#333=PRESENTATION_STYLE_ASSIGNMENT((#334));
#334=SURFACE_STYLE_USAGE(.BOTH.,#335);
#335=SURFACE_SIDE_STYLE('',(#336));
#336=SURFACE_STYLE_FILL_AREA(#337);
#337=FILL_AREA_STYLE('Steel - Satin',(#338));
#338=FILL_AREA_STYLE_COLOUR('Steel - Satin',#339);
#339=COLOUR_RGB('Steel - Satin',0.627450980392157,0.627450980392157,0.627450980392157);
ENDSEC;
END-ISO-10303-21;
