ISO-10303-21;
HEADER;
/* Generated by software containing ST-Developer
 * from STEP Tools, Inc. (www.steptools.com) 
 */

FILE_DESCRIPTION(
/* description */ (''),
/* implementation_level */ '2;1');

FILE_NAME(
/* name */ 
'D:/E/projects/jgl/CNN/BRepNet/tests/test_data/simple_solids/block_tor
us_fillet3.step',
/* time_stamp */ '2021-04-22T10:19:16+01:00',
/* author */ (''),
/* organization */ (''),
/* preprocessor_version */ 'ST-DEVELOPER v18.1',
/* originating_system */ 'Autodesk Translation Framework v10.6.0.1341',

/* authorisation */ '');

FILE_SCHEMA (('AUTOMOTIVE_DESIGN { 1 0 10303 214 3 1 1 }'));
ENDSEC;

DATA;
#10=MECHANICAL_DESIGN_GEOMETRIC_PRESENTATION_REPRESENTATION('',(#13),#309);
#11=SHAPE_REPRESENTATION_RELATIONSHIP('SRR','None',#316,#12);
#12=ADVANCED_BREP_SHAPE_REPRESENTATION('',(#14),#308);
#13=STYLED_ITEM('',(#325),#14);
#14=MANIFOLD_SOLID_BREP('Body1',#172);
#15=PLANE('',#194);
#16=PLANE('',#195);
#17=PLANE('',#196);
#18=PLANE('',#199);
#19=PLANE('',#200);
#20=PLANE('',#201);
#21=(
BOUNDED_SURFACE()
B_SPLINE_SURFACE(2,2,((#261,#262,#263),(#264,#265,#266),(#267,#268,#269)),
 .UNSPECIFIED.,.F.,.F.,.F.)
B_SPLINE_SURFACE_WITH_KNOTS((3,3),(3,3),(-1.5707963267949,0.),(-1.5707963267949,
0.),.UNSPECIFIED.)
GEOMETRIC_REPRESENTATION_ITEM()
RATIONAL_B_SPLINE_SURFACE(((1.,0.707106781186548,1.),(0.707106781186548,
0.500000000000001,0.707106781186548),(1.,0.707106781186548,1.)))
REPRESENTATION_ITEM('')
SURFACE()
);
#22=FACE_OUTER_BOUND('',#32,.T.);
#23=FACE_OUTER_BOUND('',#33,.T.);
#24=FACE_OUTER_BOUND('',#34,.T.);
#25=FACE_OUTER_BOUND('',#35,.T.);
#26=FACE_OUTER_BOUND('',#36,.T.);
#27=FACE_OUTER_BOUND('',#37,.T.);
#28=FACE_OUTER_BOUND('',#38,.T.);
#29=FACE_OUTER_BOUND('',#39,.T.);
#30=FACE_OUTER_BOUND('',#40,.T.);
#31=FACE_OUTER_BOUND('',#41,.T.);
#32=EDGE_LOOP('',(#115,#116,#117,#118));
#33=EDGE_LOOP('',(#119,#120,#121,#122));
#34=EDGE_LOOP('',(#123,#124,#125,#126));
#35=EDGE_LOOP('',(#127,#128,#129,#130,#131));
#36=EDGE_LOOP('',(#132,#133,#134,#135,#136));
#37=EDGE_LOOP('',(#137,#138,#139,#140));
#38=EDGE_LOOP('',(#141,#142,#143,#144));
#39=EDGE_LOOP('',(#145,#146,#147,#148));
#40=EDGE_LOOP('',(#149,#150,#151,#152,#153));
#41=EDGE_LOOP('',(#154,#155,#156,#157,#158));
#42=LINE('',#257,#57);
#43=LINE('',#260,#58);
#44=LINE('',#279,#59);
#45=LINE('',#280,#60);
#46=LINE('',#283,#61);
#47=LINE('',#284,#62);
#48=LINE('',#287,#63);
#49=LINE('',#289,#64);
#50=LINE('',#290,#65);
#51=LINE('',#293,#66);
#52=LINE('',#294,#67);
#53=LINE('',#297,#68);
#54=LINE('',#301,#69);
#55=LINE('',#302,#70);
#56=LINE('',#304,#71);
#57=VECTOR('',#208,10.);
#58=VECTOR('',#211,10.);
#59=VECTOR('',#222,10.);
#60=VECTOR('',#223,10.);
#61=VECTOR('',#226,10.);
#62=VECTOR('',#227,10.);
#63=VECTOR('',#230,10.);
#64=VECTOR('',#231,10.);
#65=VECTOR('',#232,10.);
#66=VECTOR('',#235,10.);
#67=VECTOR('',#236,10.);
#68=VECTOR('',#239,10.);
#69=VECTOR('',#244,10.);
#70=VECTOR('',#245,10.);
#71=VECTOR('',#248,10.);
#72=CIRCLE('',#187,10.);
#73=CIRCLE('',#188,10.);
#74=CIRCLE('',#189,10.);
#75=CIRCLE('',#190,20.);
#76=CIRCLE('',#191,10.);
#77=CIRCLE('',#193,10.);
#78=CIRCLE('',#198,20.);
#79=VERTEX_POINT('',#253);
#80=VERTEX_POINT('',#254);
#81=VERTEX_POINT('',#256);
#82=VERTEX_POINT('',#258);
#83=VERTEX_POINT('',#270);
#84=VERTEX_POINT('',#271);
#85=VERTEX_POINT('',#276);
#86=VERTEX_POINT('',#277);
#87=VERTEX_POINT('',#282);
#88=VERTEX_POINT('',#286);
#89=VERTEX_POINT('',#288);
#90=VERTEX_POINT('',#292);
#91=VERTEX_POINT('',#296);
#92=VERTEX_POINT('',#300);
#93=EDGE_CURVE('',#79,#80,#72,.T.);
#94=EDGE_CURVE('',#80,#81,#42,.T.);
#95=EDGE_CURVE('',#81,#82,#73,.T.);
#96=EDGE_CURVE('',#82,#79,#43,.T.);
#97=EDGE_CURVE('',#83,#84,#74,.T.);
#98=EDGE_CURVE('',#84,#82,#75,.T.);
#99=EDGE_CURVE('',#81,#83,#76,.T.);
#100=EDGE_CURVE('',#85,#86,#77,.T.);
#101=EDGE_CURVE('',#86,#84,#44,.T.);
#102=EDGE_CURVE('',#83,#85,#45,.T.);
#103=EDGE_CURVE('',#80,#87,#46,.T.);
#104=EDGE_CURVE('',#87,#85,#47,.T.);
#105=EDGE_CURVE('',#88,#79,#48,.T.);
#106=EDGE_CURVE('',#89,#88,#49,.T.);
#107=EDGE_CURVE('',#87,#89,#50,.T.);
#108=EDGE_CURVE('',#90,#82,#51,.T.);
#109=EDGE_CURVE('',#88,#90,#52,.T.);
#110=EDGE_CURVE('',#84,#91,#53,.T.);
#111=EDGE_CURVE('',#91,#90,#78,.T.);
#112=EDGE_CURVE('',#86,#92,#54,.T.);
#113=EDGE_CURVE('',#92,#91,#55,.T.);
#114=EDGE_CURVE('',#89,#92,#56,.T.);
#115=ORIENTED_EDGE('',*,*,#93,.T.);
#116=ORIENTED_EDGE('',*,*,#94,.T.);
#117=ORIENTED_EDGE('',*,*,#95,.T.);
#118=ORIENTED_EDGE('',*,*,#96,.T.);
#119=ORIENTED_EDGE('',*,*,#97,.T.);
#120=ORIENTED_EDGE('',*,*,#98,.T.);
#121=ORIENTED_EDGE('',*,*,#95,.F.);
#122=ORIENTED_EDGE('',*,*,#99,.T.);
#123=ORIENTED_EDGE('',*,*,#100,.T.);
#124=ORIENTED_EDGE('',*,*,#101,.T.);
#125=ORIENTED_EDGE('',*,*,#97,.F.);
#126=ORIENTED_EDGE('',*,*,#102,.T.);
#127=ORIENTED_EDGE('',*,*,#102,.F.);
#128=ORIENTED_EDGE('',*,*,#99,.F.);
#129=ORIENTED_EDGE('',*,*,#94,.F.);
#130=ORIENTED_EDGE('',*,*,#103,.T.);
#131=ORIENTED_EDGE('',*,*,#104,.T.);
#132=ORIENTED_EDGE('',*,*,#93,.F.);
#133=ORIENTED_EDGE('',*,*,#105,.F.);
#134=ORIENTED_EDGE('',*,*,#106,.F.);
#135=ORIENTED_EDGE('',*,*,#107,.F.);
#136=ORIENTED_EDGE('',*,*,#103,.F.);
#137=ORIENTED_EDGE('',*,*,#96,.F.);
#138=ORIENTED_EDGE('',*,*,#108,.F.);
#139=ORIENTED_EDGE('',*,*,#109,.F.);
#140=ORIENTED_EDGE('',*,*,#105,.T.);
#141=ORIENTED_EDGE('',*,*,#98,.F.);
#142=ORIENTED_EDGE('',*,*,#110,.T.);
#143=ORIENTED_EDGE('',*,*,#111,.T.);
#144=ORIENTED_EDGE('',*,*,#108,.T.);
#145=ORIENTED_EDGE('',*,*,#101,.F.);
#146=ORIENTED_EDGE('',*,*,#112,.T.);
#147=ORIENTED_EDGE('',*,*,#113,.T.);
#148=ORIENTED_EDGE('',*,*,#110,.F.);
#149=ORIENTED_EDGE('',*,*,#100,.F.);
#150=ORIENTED_EDGE('',*,*,#104,.F.);
#151=ORIENTED_EDGE('',*,*,#107,.T.);
#152=ORIENTED_EDGE('',*,*,#114,.T.);
#153=ORIENTED_EDGE('',*,*,#112,.F.);
#154=ORIENTED_EDGE('',*,*,#111,.F.);
#155=ORIENTED_EDGE('',*,*,#113,.F.);
#156=ORIENTED_EDGE('',*,*,#114,.F.);
#157=ORIENTED_EDGE('',*,*,#106,.T.);
#158=ORIENTED_EDGE('',*,*,#109,.T.);
#159=CYLINDRICAL_SURFACE('',#186,10.);
#160=CYLINDRICAL_SURFACE('',#192,10.);
#161=CYLINDRICAL_SURFACE('',#197,20.);
#162=ADVANCED_FACE('',(#22),#159,.T.);
#163=ADVANCED_FACE('',(#23),#21,.F.);
#164=ADVANCED_FACE('',(#24),#160,.T.);
#165=ADVANCED_FACE('',(#25),#15,.T.);
#166=ADVANCED_FACE('',(#26),#16,.F.);
#167=ADVANCED_FACE('',(#27),#17,.T.);
#168=ADVANCED_FACE('',(#28),#161,.T.);
#169=ADVANCED_FACE('',(#29),#18,.T.);
#170=ADVANCED_FACE('',(#30),#19,.T.);
#171=ADVANCED_FACE('',(#31),#20,.T.);
#172=CLOSED_SHELL('',(#162,#163,#164,#165,#166,#167,#168,#169,#170,#171));
#173=DERIVED_UNIT_ELEMENT(#175,1.);
#174=DERIVED_UNIT_ELEMENT(#311,-3.);
#175=(
MASS_UNIT()
NAMED_UNIT(*)
SI_UNIT(.KILO.,.GRAM.)
);
#176=DERIVED_UNIT((#173,#174));
#177=MEASURE_REPRESENTATION_ITEM('density measure',
POSITIVE_RATIO_MEASURE(7850.),#176);
#178=PROPERTY_DEFINITION_REPRESENTATION(#183,#180);
#179=PROPERTY_DEFINITION_REPRESENTATION(#184,#181);
#180=REPRESENTATION('material name',(#182),#308);
#181=REPRESENTATION('density',(#177),#308);
#182=DESCRIPTIVE_REPRESENTATION_ITEM('Steel','Steel');
#183=PROPERTY_DEFINITION('material property','material name',#318);
#184=PROPERTY_DEFINITION('material property','density of part',#318);
#185=AXIS2_PLACEMENT_3D('placement',#251,#202,#203);
#186=AXIS2_PLACEMENT_3D('',#252,#204,#205);
#187=AXIS2_PLACEMENT_3D('',#255,#206,#207);
#188=AXIS2_PLACEMENT_3D('',#259,#209,#210);
#189=AXIS2_PLACEMENT_3D('',#272,#212,#213);
#190=AXIS2_PLACEMENT_3D('',#273,#214,#215);
#191=AXIS2_PLACEMENT_3D('',#274,#216,#217);
#192=AXIS2_PLACEMENT_3D('',#275,#218,#219);
#193=AXIS2_PLACEMENT_3D('',#278,#220,#221);
#194=AXIS2_PLACEMENT_3D('',#281,#224,#225);
#195=AXIS2_PLACEMENT_3D('',#285,#228,#229);
#196=AXIS2_PLACEMENT_3D('',#291,#233,#234);
#197=AXIS2_PLACEMENT_3D('',#295,#237,#238);
#198=AXIS2_PLACEMENT_3D('',#298,#240,#241);
#199=AXIS2_PLACEMENT_3D('',#299,#242,#243);
#200=AXIS2_PLACEMENT_3D('',#303,#246,#247);
#201=AXIS2_PLACEMENT_3D('',#305,#249,#250);
#202=DIRECTION('axis',(0.,0.,1.));
#203=DIRECTION('refdir',(1.,0.,0.));
#204=DIRECTION('center_axis',(0.,0.,1.));
#205=DIRECTION('ref_axis',(0.707106781186547,-0.707106781186547,0.));
#206=DIRECTION('center_axis',(0.,0.,1.));
#207=DIRECTION('ref_axis',(0.707106781186547,-0.707106781186547,0.));
#208=DIRECTION('',(0.,0.,1.));
#209=DIRECTION('center_axis',(0.,0.,-1.));
#210=DIRECTION('ref_axis',(1.,0.,0.));
#211=DIRECTION('',(0.,0.,-1.));
#212=DIRECTION('center_axis',(0.,-1.,0.));
#213=DIRECTION('ref_axis',(1.,0.,0.));
#214=DIRECTION('center_axis',(1.,0.,0.));
#215=DIRECTION('ref_axis',(0.,-0.707106781186547,0.707106781186547));
#216=DIRECTION('center_axis',(-1.,0.,0.));
#217=DIRECTION('ref_axis',(0.,-0.707106781186547,0.707106781186547));
#218=DIRECTION('center_axis',(0.,1.,0.));
#219=DIRECTION('ref_axis',(0.707106781186547,0.,0.707106781186547));
#220=DIRECTION('center_axis',(0.,-1.,0.));
#221=DIRECTION('ref_axis',(0.707106781186547,0.,0.707106781186547));
#222=DIRECTION('',(0.,-1.,0.));
#223=DIRECTION('',(0.,1.,0.));
#224=DIRECTION('center_axis',(1.,0.,0.));
#225=DIRECTION('ref_axis',(0.,1.,0.));
#226=DIRECTION('',(0.,1.,0.));
#227=DIRECTION('',(0.,0.,1.));
#228=DIRECTION('center_axis',(0.,0.,1.));
#229=DIRECTION('ref_axis',(1.,0.,0.));
#230=DIRECTION('',(1.,0.,0.));
#231=DIRECTION('',(0.,-1.,0.));
#232=DIRECTION('',(-1.,0.,0.));
#233=DIRECTION('center_axis',(0.,-1.,0.));
#234=DIRECTION('ref_axis',(1.,0.,0.));
#235=DIRECTION('',(1.,0.,0.));
#236=DIRECTION('',(0.,0.,1.));
#237=DIRECTION('center_axis',(1.,0.,0.));
#238=DIRECTION('ref_axis',(0.,-0.707106781186547,0.707106781186547));
#239=DIRECTION('',(-1.,0.,0.));
#240=DIRECTION('center_axis',(1.,0.,0.));
#241=DIRECTION('ref_axis',(0.,-0.707106781186547,0.707106781186547));
#242=DIRECTION('center_axis',(0.,0.,1.));
#243=DIRECTION('ref_axis',(1.,0.,0.));
#244=DIRECTION('',(-1.,0.,0.));
#245=DIRECTION('',(0.,-1.,0.));
#246=DIRECTION('center_axis',(0.,1.,0.));
#247=DIRECTION('ref_axis',(-1.,0.,0.));
#248=DIRECTION('',(0.,0.,1.));
#249=DIRECTION('center_axis',(-1.,0.,0.));
#250=DIRECTION('ref_axis',(0.,-1.,0.));
#251=CARTESIAN_POINT('',(0.,0.,0.));
#252=CARTESIAN_POINT('Origin',(40.,10.,0.));
#253=CARTESIAN_POINT('',(40.,0.,0.));
#254=CARTESIAN_POINT('',(50.,10.,0.));
#255=CARTESIAN_POINT('Origin',(40.,10.,0.));
#256=CARTESIAN_POINT('',(50.,10.,20.));
#257=CARTESIAN_POINT('',(50.,10.,0.));
#258=CARTESIAN_POINT('',(40.,0.,20.));
#259=CARTESIAN_POINT('Origin',(40.,10.,20.));
#260=CARTESIAN_POINT('',(40.,0.,0.));
#261=CARTESIAN_POINT('Ctrl Pts',(50.,10.,20.));
#262=CARTESIAN_POINT('Ctrl Pts',(50.,10.,30.));
#263=CARTESIAN_POINT('Ctrl Pts',(50.,20.,30.));
#264=CARTESIAN_POINT('Ctrl Pts',(50.,0.,20.));
#265=CARTESIAN_POINT('Ctrl Pts',(50.,4.44089209850063E-15,40.));
#266=CARTESIAN_POINT('Ctrl Pts',(50.,20.,40.));
#267=CARTESIAN_POINT('Ctrl Pts',(40.,0.,20.));
#268=CARTESIAN_POINT('Ctrl Pts',(40.,4.44089209850063E-15,40.));
#269=CARTESIAN_POINT('Ctrl Pts',(40.,20.,40.));
#270=CARTESIAN_POINT('',(50.,20.,30.));
#271=CARTESIAN_POINT('',(40.,20.,40.));
#272=CARTESIAN_POINT('Origin',(40.,20.,30.));
#273=CARTESIAN_POINT('Origin',(40.,20.,20.));
#274=CARTESIAN_POINT('Origin',(50.,20.,20.));
#275=CARTESIAN_POINT('Origin',(40.,12.5,30.));
#276=CARTESIAN_POINT('',(50.,50.,30.));
#277=CARTESIAN_POINT('',(40.,50.,40.));
#278=CARTESIAN_POINT('Origin',(40.,50.,30.));
#279=CARTESIAN_POINT('',(40.,12.5,40.));
#280=CARTESIAN_POINT('',(50.,12.5,30.));
#281=CARTESIAN_POINT('Origin',(50.,0.,0.));
#282=CARTESIAN_POINT('',(50.,50.,0.));
#283=CARTESIAN_POINT('',(50.,0.,0.));
#284=CARTESIAN_POINT('',(50.,50.,0.));
#285=CARTESIAN_POINT('Origin',(25.,25.,0.));
#286=CARTESIAN_POINT('',(0.,0.,0.));
#287=CARTESIAN_POINT('',(0.,0.,0.));
#288=CARTESIAN_POINT('',(0.,50.,0.));
#289=CARTESIAN_POINT('',(0.,50.,0.));
#290=CARTESIAN_POINT('',(50.,50.,0.));
#291=CARTESIAN_POINT('Origin',(0.,0.,0.));
#292=CARTESIAN_POINT('',(0.,0.,20.));
#293=CARTESIAN_POINT('',(12.5,0.,20.));
#294=CARTESIAN_POINT('',(0.,0.,0.));
#295=CARTESIAN_POINT('Origin',(12.5,20.,20.));
#296=CARTESIAN_POINT('',(0.,20.,40.));
#297=CARTESIAN_POINT('',(12.5,20.,40.));
#298=CARTESIAN_POINT('Origin',(0.,20.,20.));
#299=CARTESIAN_POINT('Origin',(25.,25.,40.));
#300=CARTESIAN_POINT('',(0.,50.,40.));
#301=CARTESIAN_POINT('',(50.,50.,40.));
#302=CARTESIAN_POINT('',(0.,50.,40.));
#303=CARTESIAN_POINT('Origin',(50.,50.,0.));
#304=CARTESIAN_POINT('',(0.,50.,0.));
#305=CARTESIAN_POINT('Origin',(0.,50.,0.));
#306=UNCERTAINTY_MEASURE_WITH_UNIT(LENGTH_MEASURE(0.01),#310,
'DISTANCE_ACCURACY_VALUE',
'Maximum model space distance between geometric entities at asserted c
onnectivities');
#307=UNCERTAINTY_MEASURE_WITH_UNIT(LENGTH_MEASURE(0.01),#310,
'DISTANCE_ACCURACY_VALUE',
'Maximum model space distance between geometric entities at asserted c
onnectivities');
#308=(
GEOMETRIC_REPRESENTATION_CONTEXT(3)
GLOBAL_UNCERTAINTY_ASSIGNED_CONTEXT((#306))
GLOBAL_UNIT_ASSIGNED_CONTEXT((#310,#312,#313))
REPRESENTATION_CONTEXT('','3D')
);
#309=(
GEOMETRIC_REPRESENTATION_CONTEXT(3)
GLOBAL_UNCERTAINTY_ASSIGNED_CONTEXT((#307))
GLOBAL_UNIT_ASSIGNED_CONTEXT((#310,#312,#313))
REPRESENTATION_CONTEXT('','3D')
);
#310=(
LENGTH_UNIT()
NAMED_UNIT(*)
SI_UNIT(.MILLI.,.METRE.)
);
#311=(
LENGTH_UNIT()
NAMED_UNIT(*)
SI_UNIT($,.METRE.)
);
#312=(
NAMED_UNIT(*)
PLANE_ANGLE_UNIT()
SI_UNIT($,.RADIAN.)
);
#313=(
NAMED_UNIT(*)
SI_UNIT($,.STERADIAN.)
SOLID_ANGLE_UNIT()
);
#314=SHAPE_DEFINITION_REPRESENTATION(#315,#316);
#315=PRODUCT_DEFINITION_SHAPE('',$,#318);
#316=SHAPE_REPRESENTATION('',(#185),#308);
#317=PRODUCT_DEFINITION_CONTEXT('part definition',#322,'design');
#318=PRODUCT_DEFINITION('(Unsaved)','(Unsaved)',#319,#317);
#319=PRODUCT_DEFINITION_FORMATION('',$,#324);
#320=PRODUCT_RELATED_PRODUCT_CATEGORY('(Unsaved)','(Unsaved)',(#324));
#321=APPLICATION_PROTOCOL_DEFINITION('international standard',
'automotive_design',2009,#322);
#322=APPLICATION_CONTEXT(
'Core Data for Automotive Mechanical Design Process');
#323=PRODUCT_CONTEXT('part definition',#322,'mechanical');
#324=PRODUCT('(Unsaved)','(Unsaved)',$,(#323));
#325=PRESENTATION_STYLE_ASSIGNMENT((#326));
#326=SURFACE_STYLE_USAGE(.BOTH.,#327);
#327=SURFACE_SIDE_STYLE('',(#328));
#328=SURFACE_STYLE_FILL_AREA(#329);
#329=FILL_AREA_STYLE('Steel - Satin',(#330));
#330=FILL_AREA_STYLE_COLOUR('Steel - Satin',#331);
#331=COLOUR_RGB('Steel - Satin',0.627450980392157,0.627450980392157,0.627450980392157);
ENDSEC;
END-ISO-10303-21;
