ISO-10303-21;
HEADER;
/* Generated by software containing ST-Developer
 * from STEP Tools, Inc. (www.steptools.com) 
 */

FILE_DESCRIPTION(
/* description */ (''),
/* implementation_level */ '2;1');

FILE_NAME(
/* name */ 
'D:/E/projects/jgl/CNN/BRepNet/tests/test_data/simple_solids/block_fil
let3.step',
/* time_stamp */ '2021-04-22T10:18:27+01:00',
/* author */ (''),
/* organization */ (''),
/* preprocessor_version */ 'ST-DEVELOPER v18.1',
/* originating_system */ 'Autodesk Translation Framework v10.6.0.1341',

/* authorisation */ '');

FILE_SCHEMA (('AUTOMOTIVE_DESIGN { 1 0 10303 214 3 1 1 }'));
ENDSEC;

DATA;
#10=MECHANICAL_DESIGN_GEOMETRIC_PRESENTATION_REPRESENTATION('',(#13),#294);
#11=SHAPE_REPRESENTATION_RELATIONSHIP('SRR','None',#301,#12);
#12=ADVANCED_BREP_SHAPE_REPRESENTATION('',(#14),#293);
#13=STYLED_ITEM('',(#310),#14);
#14=MANIFOLD_SOLID_BREP('Body1',#167);
#15=PLANE('',#191);
#16=PLANE('',#192);
#17=PLANE('',#193);
#18=PLANE('',#194);
#19=PLANE('',#195);
#20=PLANE('',#196);
#21=LINE('',#258,#36);
#22=LINE('',#259,#37);
#23=LINE('',#264,#38);
#24=LINE('',#265,#39);
#25=LINE('',#270,#40);
#26=LINE('',#271,#41);
#27=LINE('',#274,#42);
#28=LINE('',#276,#43);
#29=LINE('',#278,#44);
#30=LINE('',#279,#45);
#31=LINE('',#281,#46);
#32=LINE('',#284,#47);
#33=LINE('',#285,#48);
#34=LINE('',#287,#49);
#35=LINE('',#289,#50);
#36=VECTOR('',#211,10.);
#37=VECTOR('',#212,10.);
#38=VECTOR('',#217,10.);
#39=VECTOR('',#218,10.);
#40=VECTOR('',#223,10.);
#41=VECTOR('',#224,10.);
#42=VECTOR('',#227,10.);
#43=VECTOR('',#228,10.);
#44=VECTOR('',#229,10.);
#45=VECTOR('',#230,10.);
#46=VECTOR('',#233,10.);
#47=VECTOR('',#236,10.);
#48=VECTOR('',#237,10.);
#49=VECTOR('',#240,10.);
#50=VECTOR('',#243,10.);
#51=CYLINDRICAL_SURFACE('',#185,15.);
#52=CYLINDRICAL_SURFACE('',#187,15.);
#53=CYLINDRICAL_SURFACE('',#189,15.);
#54=FACE_OUTER_BOUND('',#64,.T.);
#55=FACE_OUTER_BOUND('',#65,.T.);
#56=FACE_OUTER_BOUND('',#66,.T.);
#57=FACE_OUTER_BOUND('',#67,.T.);
#58=FACE_OUTER_BOUND('',#68,.T.);
#59=FACE_OUTER_BOUND('',#69,.T.);
#60=FACE_OUTER_BOUND('',#70,.T.);
#61=FACE_OUTER_BOUND('',#71,.T.);
#62=FACE_OUTER_BOUND('',#72,.T.);
#63=FACE_OUTER_BOUND('',#73,.T.);
#64=EDGE_LOOP('',(#114,#115,#116));
#65=EDGE_LOOP('',(#117,#118,#119,#120));
#66=EDGE_LOOP('',(#121,#122,#123,#124));
#67=EDGE_LOOP('',(#125,#126,#127,#128));
#68=EDGE_LOOP('',(#129,#130,#131,#132,#133));
#69=EDGE_LOOP('',(#134,#135,#136,#137));
#70=EDGE_LOOP('',(#138,#139,#140,#141,#142));
#71=EDGE_LOOP('',(#143,#144,#145,#146));
#72=EDGE_LOOP('',(#147,#148,#149,#150));
#73=EDGE_LOOP('',(#151,#152,#153,#154,#155));
#74=CIRCLE('',#182,15.);
#75=CIRCLE('',#183,15.);
#76=CIRCLE('',#184,15.);
#77=CIRCLE('',#186,15.);
#78=CIRCLE('',#188,15.);
#79=CIRCLE('',#190,15.);
#80=VERTEX_POINT('',#248);
#81=VERTEX_POINT('',#249);
#82=VERTEX_POINT('',#251);
#83=VERTEX_POINT('',#255);
#84=VERTEX_POINT('',#256);
#85=VERTEX_POINT('',#261);
#86=VERTEX_POINT('',#262);
#87=VERTEX_POINT('',#267);
#88=VERTEX_POINT('',#268);
#89=VERTEX_POINT('',#273);
#90=VERTEX_POINT('',#275);
#91=VERTEX_POINT('',#277);
#92=VERTEX_POINT('',#283);
#93=EDGE_CURVE('',#80,#81,#74,.F.);
#94=EDGE_CURVE('',#82,#80,#75,.F.);
#95=EDGE_CURVE('',#81,#82,#76,.F.);
#96=EDGE_CURVE('',#83,#84,#77,.T.);
#97=EDGE_CURVE('',#84,#82,#21,.T.);
#98=EDGE_CURVE('',#80,#83,#22,.T.);
#99=EDGE_CURVE('',#85,#86,#78,.T.);
#100=EDGE_CURVE('',#86,#81,#23,.T.);
#101=EDGE_CURVE('',#82,#85,#24,.T.);
#102=EDGE_CURVE('',#87,#88,#79,.T.);
#103=EDGE_CURVE('',#88,#80,#25,.T.);
#104=EDGE_CURVE('',#81,#87,#26,.T.);
#105=EDGE_CURVE('',#89,#87,#27,.T.);
#106=EDGE_CURVE('',#90,#89,#28,.T.);
#107=EDGE_CURVE('',#90,#91,#29,.T.);
#108=EDGE_CURVE('',#91,#88,#30,.T.);
#109=EDGE_CURVE('',#86,#89,#31,.T.);
#110=EDGE_CURVE('',#92,#85,#32,.T.);
#111=EDGE_CURVE('',#92,#90,#33,.T.);
#112=EDGE_CURVE('',#84,#92,#34,.T.);
#113=EDGE_CURVE('',#91,#83,#35,.T.);
#114=ORIENTED_EDGE('',*,*,#93,.F.);
#115=ORIENTED_EDGE('',*,*,#94,.F.);
#116=ORIENTED_EDGE('',*,*,#95,.F.);
#117=ORIENTED_EDGE('',*,*,#96,.T.);
#118=ORIENTED_EDGE('',*,*,#97,.T.);
#119=ORIENTED_EDGE('',*,*,#94,.T.);
#120=ORIENTED_EDGE('',*,*,#98,.T.);
#121=ORIENTED_EDGE('',*,*,#99,.T.);
#122=ORIENTED_EDGE('',*,*,#100,.T.);
#123=ORIENTED_EDGE('',*,*,#95,.T.);
#124=ORIENTED_EDGE('',*,*,#101,.T.);
#125=ORIENTED_EDGE('',*,*,#102,.T.);
#126=ORIENTED_EDGE('',*,*,#103,.T.);
#127=ORIENTED_EDGE('',*,*,#93,.T.);
#128=ORIENTED_EDGE('',*,*,#104,.T.);
#129=ORIENTED_EDGE('',*,*,#102,.F.);
#130=ORIENTED_EDGE('',*,*,#105,.F.);
#131=ORIENTED_EDGE('',*,*,#106,.F.);
#132=ORIENTED_EDGE('',*,*,#107,.T.);
#133=ORIENTED_EDGE('',*,*,#108,.T.);
#134=ORIENTED_EDGE('',*,*,#104,.F.);
#135=ORIENTED_EDGE('',*,*,#100,.F.);
#136=ORIENTED_EDGE('',*,*,#109,.T.);
#137=ORIENTED_EDGE('',*,*,#105,.T.);
#138=ORIENTED_EDGE('',*,*,#99,.F.);
#139=ORIENTED_EDGE('',*,*,#110,.F.);
#140=ORIENTED_EDGE('',*,*,#111,.T.);
#141=ORIENTED_EDGE('',*,*,#106,.T.);
#142=ORIENTED_EDGE('',*,*,#109,.F.);
#143=ORIENTED_EDGE('',*,*,#97,.F.);
#144=ORIENTED_EDGE('',*,*,#112,.T.);
#145=ORIENTED_EDGE('',*,*,#110,.T.);
#146=ORIENTED_EDGE('',*,*,#101,.F.);
#147=ORIENTED_EDGE('',*,*,#103,.F.);
#148=ORIENTED_EDGE('',*,*,#108,.F.);
#149=ORIENTED_EDGE('',*,*,#113,.T.);
#150=ORIENTED_EDGE('',*,*,#98,.F.);
#151=ORIENTED_EDGE('',*,*,#96,.F.);
#152=ORIENTED_EDGE('',*,*,#113,.F.);
#153=ORIENTED_EDGE('',*,*,#107,.F.);
#154=ORIENTED_EDGE('',*,*,#111,.F.);
#155=ORIENTED_EDGE('',*,*,#112,.F.);
#156=SPHERICAL_SURFACE('',#181,15.);
#157=ADVANCED_FACE('',(#54),#156,.T.);
#158=ADVANCED_FACE('',(#55),#51,.T.);
#159=ADVANCED_FACE('',(#56),#52,.T.);
#160=ADVANCED_FACE('',(#57),#53,.T.);
#161=ADVANCED_FACE('',(#58),#15,.T.);
#162=ADVANCED_FACE('',(#59),#16,.T.);
#163=ADVANCED_FACE('',(#60),#17,.T.);
#164=ADVANCED_FACE('',(#61),#18,.T.);
#165=ADVANCED_FACE('',(#62),#19,.T.);
#166=ADVANCED_FACE('',(#63),#20,.F.);
#167=CLOSED_SHELL('',(#157,#158,#159,#160,#161,#162,#163,#164,#165,#166));
#168=DERIVED_UNIT_ELEMENT(#170,1.);
#169=DERIVED_UNIT_ELEMENT(#296,-3.);
#170=(
MASS_UNIT()
NAMED_UNIT(*)
SI_UNIT(.KILO.,.GRAM.)
);
#171=DERIVED_UNIT((#168,#169));
#172=MEASURE_REPRESENTATION_ITEM('density measure',
POSITIVE_RATIO_MEASURE(7850.),#171);
#173=PROPERTY_DEFINITION_REPRESENTATION(#178,#175);
#174=PROPERTY_DEFINITION_REPRESENTATION(#179,#176);
#175=REPRESENTATION('material name',(#177),#293);
#176=REPRESENTATION('density',(#172),#293);
#177=DESCRIPTIVE_REPRESENTATION_ITEM('Steel','Steel');
#178=PROPERTY_DEFINITION('material property','material name',#303);
#179=PROPERTY_DEFINITION('material property','density of part',#303);
#180=AXIS2_PLACEMENT_3D('placement',#246,#197,#198);
#181=AXIS2_PLACEMENT_3D('',#247,#199,#200);
#182=AXIS2_PLACEMENT_3D('',#250,#201,#202);
#183=AXIS2_PLACEMENT_3D('',#252,#203,#204);
#184=AXIS2_PLACEMENT_3D('',#253,#205,#206);
#185=AXIS2_PLACEMENT_3D('',#254,#207,#208);
#186=AXIS2_PLACEMENT_3D('',#257,#209,#210);
#187=AXIS2_PLACEMENT_3D('',#260,#213,#214);
#188=AXIS2_PLACEMENT_3D('',#263,#215,#216);
#189=AXIS2_PLACEMENT_3D('',#266,#219,#220);
#190=AXIS2_PLACEMENT_3D('',#269,#221,#222);
#191=AXIS2_PLACEMENT_3D('',#272,#225,#226);
#192=AXIS2_PLACEMENT_3D('',#280,#231,#232);
#193=AXIS2_PLACEMENT_3D('',#282,#234,#235);
#194=AXIS2_PLACEMENT_3D('',#286,#238,#239);
#195=AXIS2_PLACEMENT_3D('',#288,#241,#242);
#196=AXIS2_PLACEMENT_3D('',#290,#244,#245);
#197=DIRECTION('axis',(0.,0.,1.));
#198=DIRECTION('refdir',(1.,0.,0.));
#199=DIRECTION('center_axis',(-0.408248290463863,-0.816496580927726,-0.408248290463863));
#200=DIRECTION('ref_axis',(0.577350269189626,-0.577350269189626,0.577350269189626));
#201=DIRECTION('center_axis',(1.,0.,0.));
#202=DIRECTION('ref_axis',(0.,-1.,0.));
#203=DIRECTION('center_axis',(0.,0.,1.));
#204=DIRECTION('ref_axis',(1.,0.,0.));
#205=DIRECTION('center_axis',(0.,-1.,0.));
#206=DIRECTION('ref_axis',(0.,0.,1.));
#207=DIRECTION('center_axis',(0.,0.,1.));
#208=DIRECTION('ref_axis',(0.707106781186547,-0.707106781186547,0.));
#209=DIRECTION('center_axis',(0.,0.,1.));
#210=DIRECTION('ref_axis',(0.707106781186547,-0.707106781186547,0.));
#211=DIRECTION('',(0.,0.,1.));
#212=DIRECTION('',(0.,0.,-1.));
#213=DIRECTION('center_axis',(0.,1.,0.));
#214=DIRECTION('ref_axis',(0.707106781186547,0.,0.707106781186547));
#215=DIRECTION('center_axis',(0.,-1.,0.));
#216=DIRECTION('ref_axis',(0.707106781186547,0.,0.707106781186547));
#217=DIRECTION('',(0.,-1.,0.));
#218=DIRECTION('',(0.,1.,0.));
#219=DIRECTION('center_axis',(1.,0.,0.));
#220=DIRECTION('ref_axis',(0.,-0.707106781186547,0.707106781186547));
#221=DIRECTION('center_axis',(1.,0.,0.));
#222=DIRECTION('ref_axis',(0.,-0.707106781186547,0.707106781186547));
#223=DIRECTION('',(1.,0.,0.));
#224=DIRECTION('',(-1.,0.,0.));
#225=DIRECTION('center_axis',(-1.,0.,0.));
#226=DIRECTION('ref_axis',(0.,-1.,0.));
#227=DIRECTION('',(0.,-1.,0.));
#228=DIRECTION('',(0.,0.,1.));
#229=DIRECTION('',(0.,-1.,0.));
#230=DIRECTION('',(0.,0.,1.));
#231=DIRECTION('center_axis',(0.,0.,1.));
#232=DIRECTION('ref_axis',(1.,0.,0.));
#233=DIRECTION('',(-1.,0.,0.));
#234=DIRECTION('center_axis',(0.,1.,0.));
#235=DIRECTION('ref_axis',(-1.,0.,0.));
#236=DIRECTION('',(0.,0.,1.));
#237=DIRECTION('',(-1.,0.,0.));
#238=DIRECTION('center_axis',(1.,0.,0.));
#239=DIRECTION('ref_axis',(0.,1.,0.));
#240=DIRECTION('',(0.,1.,0.));
#241=DIRECTION('center_axis',(0.,-1.,0.));
#242=DIRECTION('ref_axis',(1.,0.,0.));
#243=DIRECTION('',(1.,0.,0.));
#244=DIRECTION('center_axis',(0.,0.,1.));
#245=DIRECTION('ref_axis',(1.,0.,0.));
#246=CARTESIAN_POINT('',(0.,0.,0.));
#247=CARTESIAN_POINT('Origin',(35.,15.,25.));
#248=CARTESIAN_POINT('',(35.,0.,25.));
#249=CARTESIAN_POINT('',(35.,15.,40.));
#250=CARTESIAN_POINT('Origin',(35.,15.,25.));
#251=CARTESIAN_POINT('',(50.,15.,25.));
#252=CARTESIAN_POINT('Origin',(35.,15.,25.));
#253=CARTESIAN_POINT('Origin',(35.,15.,25.));
#254=CARTESIAN_POINT('Origin',(35.,15.,0.));
#255=CARTESIAN_POINT('',(35.,0.,0.));
#256=CARTESIAN_POINT('',(50.,15.,0.));
#257=CARTESIAN_POINT('Origin',(35.,15.,0.));
#258=CARTESIAN_POINT('',(50.,15.,0.));
#259=CARTESIAN_POINT('',(35.,0.,0.));
#260=CARTESIAN_POINT('Origin',(35.,12.5,25.));
#261=CARTESIAN_POINT('',(50.,50.,25.));
#262=CARTESIAN_POINT('',(35.,50.,40.));
#263=CARTESIAN_POINT('Origin',(35.,50.,25.));
#264=CARTESIAN_POINT('',(35.,12.5,40.));
#265=CARTESIAN_POINT('',(50.,12.5,25.));
#266=CARTESIAN_POINT('Origin',(12.5,15.,25.));
#267=CARTESIAN_POINT('',(0.,15.,40.));
#268=CARTESIAN_POINT('',(0.,0.,25.));
#269=CARTESIAN_POINT('Origin',(0.,15.,25.));
#270=CARTESIAN_POINT('',(12.5,0.,25.));
#271=CARTESIAN_POINT('',(12.5,15.,40.));
#272=CARTESIAN_POINT('Origin',(0.,50.,0.));
#273=CARTESIAN_POINT('',(0.,50.,40.));
#274=CARTESIAN_POINT('',(0.,50.,40.));
#275=CARTESIAN_POINT('',(0.,50.,0.));
#276=CARTESIAN_POINT('',(0.,50.,0.));
#277=CARTESIAN_POINT('',(0.,0.,0.));
#278=CARTESIAN_POINT('',(0.,50.,0.));
#279=CARTESIAN_POINT('',(0.,0.,0.));
#280=CARTESIAN_POINT('Origin',(25.,25.,40.));
#281=CARTESIAN_POINT('',(50.,50.,40.));
#282=CARTESIAN_POINT('Origin',(50.,50.,0.));
#283=CARTESIAN_POINT('',(50.,50.,0.));
#284=CARTESIAN_POINT('',(50.,50.,0.));
#285=CARTESIAN_POINT('',(50.,50.,0.));
#286=CARTESIAN_POINT('Origin',(50.,0.,0.));
#287=CARTESIAN_POINT('',(50.,0.,0.));
#288=CARTESIAN_POINT('Origin',(0.,0.,0.));
#289=CARTESIAN_POINT('',(0.,0.,0.));
#290=CARTESIAN_POINT('Origin',(25.,25.,0.));
#291=UNCERTAINTY_MEASURE_WITH_UNIT(LENGTH_MEASURE(0.01),#295,
'DISTANCE_ACCURACY_VALUE',
'Maximum model space distance between geometric entities at asserted c
onnectivities');
#292=UNCERTAINTY_MEASURE_WITH_UNIT(LENGTH_MEASURE(0.01),#295,
'DISTANCE_ACCURACY_VALUE',
'Maximum model space distance between geometric entities at asserted c
onnectivities');
#293=(
GEOMETRIC_REPRESENTATION_CONTEXT(3)
GLOBAL_UNCERTAINTY_ASSIGNED_CONTEXT((#291))
GLOBAL_UNIT_ASSIGNED_CONTEXT((#295,#297,#298))
REPRESENTATION_CONTEXT('','3D')
);
#294=(
GEOMETRIC_REPRESENTATION_CONTEXT(3)
GLOBAL_UNCERTAINTY_ASSIGNED_CONTEXT((#292))
GLOBAL_UNIT_ASSIGNED_CONTEXT((#295,#297,#298))
REPRESENTATION_CONTEXT('','3D')
);
#295=(
LENGTH_UNIT()
NAMED_UNIT(*)
SI_UNIT(.MILLI.,.METRE.)
);
#296=(
LENGTH_UNIT()
NAMED_UNIT(*)
SI_UNIT($,.METRE.)
);
#297=(
NAMED_UNIT(*)
PLANE_ANGLE_UNIT()
SI_UNIT($,.RADIAN.)
);
#298=(
NAMED_UNIT(*)
SI_UNIT($,.STERADIAN.)
SOLID_ANGLE_UNIT()
);
#299=SHAPE_DEFINITION_REPRESENTATION(#300,#301);
#300=PRODUCT_DEFINITION_SHAPE('',$,#303);
#301=SHAPE_REPRESENTATION('',(#180),#293);
#302=PRODUCT_DEFINITION_CONTEXT('part definition',#307,'design');
#303=PRODUCT_DEFINITION('(Unsaved)','(Unsaved)',#304,#302);
#304=PRODUCT_DEFINITION_FORMATION('',$,#309);
#305=PRODUCT_RELATED_PRODUCT_CATEGORY('(Unsaved)','(Unsaved)',(#309));
#306=APPLICATION_PROTOCOL_DEFINITION('international standard',
'automotive_design',2009,#307);
#307=APPLICATION_CONTEXT(
'Core Data for Automotive Mechanical Design Process');
#308=PRODUCT_CONTEXT('part definition',#307,'mechanical');
#309=PRODUCT('(Unsaved)','(Unsaved)',$,(#308));
#310=PRESENTATION_STYLE_ASSIGNMENT((#311));
#311=SURFACE_STYLE_USAGE(.BOTH.,#312);
#312=SURFACE_SIDE_STYLE('',(#313));
#313=SURFACE_STYLE_FILL_AREA(#314);
#314=FILL_AREA_STYLE('Steel - Satin',(#315));
#315=FILL_AREA_STYLE_COLOUR('Steel - Satin',#316);
#316=COLOUR_RGB('Steel - Satin',0.627450980392157,0.627450980392157,0.627450980392157);
ENDSEC;
END-ISO-10303-21;
