ISO-10303-21;
HEADER;
/* Generated by software containing ST-Developer
 * from STEP Tools, Inc. (www.steptools.com) 
 */

FILE_DESCRIPTION(
/* description */ (''),
/* implementation_level */ '2;1');

FILE_NAME(
/* name */ 
'C:/Users/lambouj/OneDrive - autodesk/Research/MikaProject/DifferentSo
lidModelers/TransformedComponent.step',
/* time_stamp */ '2021-11-01T13:55:00+00:00',
/* author */ (''),
/* organization */ (''),
/* preprocessor_version */ 'ST-DEVELOPER v18.1',
/* originating_system */ 'Autodesk Translation Framework v10.10.0.1391',

/* authorisation */ '');

FILE_SCHEMA (('AUTOMOTIVE_DESIGN { 1 0 10303 214 3 1 1 }'));
ENDSEC;

DATA;
#10=MECHANICAL_DESIGN_GEOMETRIC_PRESENTATION_REPRESENTATION('',(#19,#20),
#486);
#11=ITEM_DEFINED_TRANSFORMATION($,$,#302,#323);
#12=(
REPRESENTATION_RELATIONSHIP($,$,#497,#496)
REPRESENTATION_RELATIONSHIP_WITH_TRANSFORMATION(#11)
SHAPE_REPRESENTATION_RELATIONSHIP()
);
#13=CONTEXT_DEPENDENT_SHAPE_REPRESENTATION(#12,#495);
#14=NEXT_ASSEMBLY_USAGE_OCCURRENCE('Component1:1','Component1:1',
'Component1:1',#499,#500,'Component1:1');
#15=SHAPE_REPRESENTATION_RELATIONSHIP('SRR','None',#497,#17);
#16=SHAPE_REPRESENTATION_RELATIONSHIP('SRR','None',#496,#18);
#17=ADVANCED_BREP_SHAPE_REPRESENTATION('',(#21),#485);
#18=ADVANCED_BREP_SHAPE_REPRESENTATION('',(#22),#484);
#19=STYLED_ITEM('',(#510),#21);
#20=STYLED_ITEM('',(#510),#22);
#21=MANIFOLD_SOLID_BREP('Body1',#287);
#22=MANIFOLD_SOLID_BREP('Body2',#288);
#23=CYLINDRICAL_SURFACE('',#308,20.);
#24=CIRCLE('',#307,20.);
#25=CIRCLE('',#309,20.);
#26=CIRCLE('',#310,20.);
#27=CIRCLE('',#311,20.);
#28=FACE_OUTER_BOUND('',#44,.T.);
#29=FACE_OUTER_BOUND('',#45,.T.);
#30=FACE_OUTER_BOUND('',#46,.T.);
#31=FACE_OUTER_BOUND('',#47,.T.);
#32=FACE_OUTER_BOUND('',#48,.T.);
#33=FACE_OUTER_BOUND('',#49,.T.);
#34=FACE_OUTER_BOUND('',#50,.T.);
#35=FACE_OUTER_BOUND('',#51,.T.);
#36=FACE_OUTER_BOUND('',#52,.T.);
#37=FACE_OUTER_BOUND('',#53,.T.);
#38=FACE_OUTER_BOUND('',#54,.T.);
#39=FACE_OUTER_BOUND('',#55,.T.);
#40=FACE_OUTER_BOUND('',#56,.T.);
#41=FACE_OUTER_BOUND('',#57,.T.);
#42=FACE_OUTER_BOUND('',#58,.T.);
#43=FACE_OUTER_BOUND('',#59,.T.);
#44=EDGE_LOOP('',(#184,#185,#186,#187));
#45=EDGE_LOOP('',(#188,#189,#190,#191));
#46=EDGE_LOOP('',(#192,#193,#194,#195));
#47=EDGE_LOOP('',(#196,#197,#198,#199));
#48=EDGE_LOOP('',(#200,#201,#202,#203,#204,#205,#206,#207));
#49=EDGE_LOOP('',(#208,#209,#210,#211));
#50=EDGE_LOOP('',(#212,#213,#214,#215));
#51=EDGE_LOOP('',(#216,#217,#218,#219));
#52=EDGE_LOOP('',(#220,#221,#222,#223,#224,#225,#226,#227));
#53=EDGE_LOOP('',(#228,#229,#230,#231));
#54=EDGE_LOOP('',(#232,#233,#234,#235));
#55=EDGE_LOOP('',(#236,#237,#238,#239));
#56=EDGE_LOOP('',(#240,#241,#242,#243));
#57=EDGE_LOOP('',(#244,#245,#246,#247));
#58=EDGE_LOOP('',(#248,#249,#250,#251));
#59=EDGE_LOOP('',(#252,#253,#254,#255));
#60=LINE('',#407,#92);
#61=LINE('',#409,#93);
#62=LINE('',#411,#94);
#63=LINE('',#412,#95);
#64=LINE('',#415,#96);
#65=LINE('',#417,#97);
#66=LINE('',#418,#98);
#67=LINE('',#421,#99);
#68=LINE('',#423,#100);
#69=LINE('',#424,#101);
#70=LINE('',#431,#102);
#71=LINE('',#435,#103);
#72=LINE('',#440,#104);
#73=LINE('',#442,#105);
#74=LINE('',#444,#106);
#75=LINE('',#445,#107);
#76=LINE('',#447,#108);
#77=LINE('',#448,#109);
#78=LINE('',#450,#110);
#79=LINE('',#451,#111);
#80=LINE('',#457,#112);
#81=LINE('',#459,#113);
#82=LINE('',#461,#114);
#83=LINE('',#462,#115);
#84=LINE('',#465,#116);
#85=LINE('',#467,#117);
#86=LINE('',#468,#118);
#87=LINE('',#471,#119);
#88=LINE('',#473,#120);
#89=LINE('',#474,#121);
#90=LINE('',#476,#122);
#91=LINE('',#477,#123);
#92=VECTOR('',#330,10.);
#93=VECTOR('',#331,10.);
#94=VECTOR('',#332,10.);
#95=VECTOR('',#333,10.);
#96=VECTOR('',#336,10.);
#97=VECTOR('',#337,10.);
#98=VECTOR('',#338,10.);
#99=VECTOR('',#341,10.);
#100=VECTOR('',#342,10.);
#101=VECTOR('',#343,10.);
#102=VECTOR('',#352,10.);
#103=VECTOR('',#355,10.);
#104=VECTOR('',#360,10.);
#105=VECTOR('',#361,10.);
#106=VECTOR('',#362,10.);
#107=VECTOR('',#363,10.);
#108=VECTOR('',#366,10.);
#109=VECTOR('',#367,10.);
#110=VECTOR('',#370,10.);
#111=VECTOR('',#371,10.);
#112=VECTOR('',#378,10.);
#113=VECTOR('',#379,10.);
#114=VECTOR('',#380,10.);
#115=VECTOR('',#381,10.);
#116=VECTOR('',#384,10.);
#117=VECTOR('',#385,10.);
#118=VECTOR('',#386,10.);
#119=VECTOR('',#389,10.);
#120=VECTOR('',#390,10.);
#121=VECTOR('',#391,10.);
#122=VECTOR('',#394,10.);
#123=VECTOR('',#395,10.);
#124=VERTEX_POINT('',#405);
#125=VERTEX_POINT('',#406);
#126=VERTEX_POINT('',#408);
#127=VERTEX_POINT('',#410);
#128=VERTEX_POINT('',#414);
#129=VERTEX_POINT('',#416);
#130=VERTEX_POINT('',#420);
#131=VERTEX_POINT('',#422);
#132=VERTEX_POINT('',#428);
#133=VERTEX_POINT('',#430);
#134=VERTEX_POINT('',#432);
#135=VERTEX_POINT('',#434);
#136=VERTEX_POINT('',#438);
#137=VERTEX_POINT('',#439);
#138=VERTEX_POINT('',#441);
#139=VERTEX_POINT('',#443);
#140=VERTEX_POINT('',#455);
#141=VERTEX_POINT('',#456);
#142=VERTEX_POINT('',#458);
#143=VERTEX_POINT('',#460);
#144=VERTEX_POINT('',#464);
#145=VERTEX_POINT('',#466);
#146=VERTEX_POINT('',#470);
#147=VERTEX_POINT('',#472);
#148=EDGE_CURVE('',#124,#125,#60,.T.);
#149=EDGE_CURVE('',#124,#126,#61,.T.);
#150=EDGE_CURVE('',#126,#127,#62,.T.);
#151=EDGE_CURVE('',#125,#127,#63,.T.);
#152=EDGE_CURVE('',#128,#124,#64,.T.);
#153=EDGE_CURVE('',#128,#129,#65,.T.);
#154=EDGE_CURVE('',#129,#126,#66,.T.);
#155=EDGE_CURVE('',#130,#128,#67,.T.);
#156=EDGE_CURVE('',#131,#130,#68,.T.);
#157=EDGE_CURVE('',#131,#129,#69,.T.);
#158=EDGE_CURVE('',#127,#131,#24,.T.);
#159=EDGE_CURVE('',#132,#130,#25,.T.);
#160=EDGE_CURVE('',#133,#132,#70,.T.);
#161=EDGE_CURVE('',#133,#134,#26,.T.);
#162=EDGE_CURVE('',#134,#135,#71,.T.);
#163=EDGE_CURVE('',#125,#135,#27,.T.);
#164=EDGE_CURVE('',#136,#137,#72,.T.);
#165=EDGE_CURVE('',#136,#138,#73,.T.);
#166=EDGE_CURVE('',#139,#138,#74,.T.);
#167=EDGE_CURVE('',#137,#139,#75,.T.);
#168=EDGE_CURVE('',#137,#134,#76,.T.);
#169=EDGE_CURVE('',#135,#139,#77,.T.);
#170=EDGE_CURVE('',#133,#136,#78,.T.);
#171=EDGE_CURVE('',#138,#132,#79,.T.);
#172=EDGE_CURVE('',#140,#141,#80,.T.);
#173=EDGE_CURVE('',#140,#142,#81,.T.);
#174=EDGE_CURVE('',#143,#142,#82,.T.);
#175=EDGE_CURVE('',#141,#143,#83,.T.);
#176=EDGE_CURVE('',#141,#144,#84,.T.);
#177=EDGE_CURVE('',#145,#143,#85,.T.);
#178=EDGE_CURVE('',#144,#145,#86,.T.);
#179=EDGE_CURVE('',#144,#146,#87,.T.);
#180=EDGE_CURVE('',#147,#145,#88,.T.);
#181=EDGE_CURVE('',#146,#147,#89,.T.);
#182=EDGE_CURVE('',#146,#140,#90,.T.);
#183=EDGE_CURVE('',#142,#147,#91,.T.);
#184=ORIENTED_EDGE('',*,*,#148,.F.);
#185=ORIENTED_EDGE('',*,*,#149,.T.);
#186=ORIENTED_EDGE('',*,*,#150,.T.);
#187=ORIENTED_EDGE('',*,*,#151,.F.);
#188=ORIENTED_EDGE('',*,*,#152,.F.);
#189=ORIENTED_EDGE('',*,*,#153,.T.);
#190=ORIENTED_EDGE('',*,*,#154,.T.);
#191=ORIENTED_EDGE('',*,*,#149,.F.);
#192=ORIENTED_EDGE('',*,*,#155,.F.);
#193=ORIENTED_EDGE('',*,*,#156,.F.);
#194=ORIENTED_EDGE('',*,*,#157,.T.);
#195=ORIENTED_EDGE('',*,*,#153,.F.);
#196=ORIENTED_EDGE('',*,*,#158,.F.);
#197=ORIENTED_EDGE('',*,*,#150,.F.);
#198=ORIENTED_EDGE('',*,*,#154,.F.);
#199=ORIENTED_EDGE('',*,*,#157,.F.);
#200=ORIENTED_EDGE('',*,*,#151,.T.);
#201=ORIENTED_EDGE('',*,*,#158,.T.);
#202=ORIENTED_EDGE('',*,*,#156,.T.);
#203=ORIENTED_EDGE('',*,*,#159,.F.);
#204=ORIENTED_EDGE('',*,*,#160,.F.);
#205=ORIENTED_EDGE('',*,*,#161,.T.);
#206=ORIENTED_EDGE('',*,*,#162,.T.);
#207=ORIENTED_EDGE('',*,*,#163,.F.);
#208=ORIENTED_EDGE('',*,*,#164,.F.);
#209=ORIENTED_EDGE('',*,*,#165,.T.);
#210=ORIENTED_EDGE('',*,*,#166,.F.);
#211=ORIENTED_EDGE('',*,*,#167,.F.);
#212=ORIENTED_EDGE('',*,*,#168,.F.);
#213=ORIENTED_EDGE('',*,*,#167,.T.);
#214=ORIENTED_EDGE('',*,*,#169,.F.);
#215=ORIENTED_EDGE('',*,*,#162,.F.);
#216=ORIENTED_EDGE('',*,*,#170,.F.);
#217=ORIENTED_EDGE('',*,*,#160,.T.);
#218=ORIENTED_EDGE('',*,*,#171,.F.);
#219=ORIENTED_EDGE('',*,*,#165,.F.);
#220=ORIENTED_EDGE('',*,*,#148,.T.);
#221=ORIENTED_EDGE('',*,*,#163,.T.);
#222=ORIENTED_EDGE('',*,*,#169,.T.);
#223=ORIENTED_EDGE('',*,*,#166,.T.);
#224=ORIENTED_EDGE('',*,*,#171,.T.);
#225=ORIENTED_EDGE('',*,*,#159,.T.);
#226=ORIENTED_EDGE('',*,*,#155,.T.);
#227=ORIENTED_EDGE('',*,*,#152,.T.);
#228=ORIENTED_EDGE('',*,*,#170,.T.);
#229=ORIENTED_EDGE('',*,*,#164,.T.);
#230=ORIENTED_EDGE('',*,*,#168,.T.);
#231=ORIENTED_EDGE('',*,*,#161,.F.);
#232=ORIENTED_EDGE('',*,*,#172,.F.);
#233=ORIENTED_EDGE('',*,*,#173,.T.);
#234=ORIENTED_EDGE('',*,*,#174,.F.);
#235=ORIENTED_EDGE('',*,*,#175,.F.);
#236=ORIENTED_EDGE('',*,*,#176,.F.);
#237=ORIENTED_EDGE('',*,*,#175,.T.);
#238=ORIENTED_EDGE('',*,*,#177,.F.);
#239=ORIENTED_EDGE('',*,*,#178,.F.);
#240=ORIENTED_EDGE('',*,*,#179,.F.);
#241=ORIENTED_EDGE('',*,*,#178,.T.);
#242=ORIENTED_EDGE('',*,*,#180,.F.);
#243=ORIENTED_EDGE('',*,*,#181,.F.);
#244=ORIENTED_EDGE('',*,*,#182,.F.);
#245=ORIENTED_EDGE('',*,*,#181,.T.);
#246=ORIENTED_EDGE('',*,*,#183,.F.);
#247=ORIENTED_EDGE('',*,*,#173,.F.);
#248=ORIENTED_EDGE('',*,*,#183,.T.);
#249=ORIENTED_EDGE('',*,*,#180,.T.);
#250=ORIENTED_EDGE('',*,*,#177,.T.);
#251=ORIENTED_EDGE('',*,*,#174,.T.);
#252=ORIENTED_EDGE('',*,*,#182,.T.);
#253=ORIENTED_EDGE('',*,*,#172,.T.);
#254=ORIENTED_EDGE('',*,*,#176,.T.);
#255=ORIENTED_EDGE('',*,*,#179,.T.);
#256=PLANE('',#303);
#257=PLANE('',#304);
#258=PLANE('',#305);
#259=PLANE('',#306);
#260=PLANE('',#312);
#261=PLANE('',#313);
#262=PLANE('',#314);
#263=PLANE('',#315);
#264=PLANE('',#316);
#265=PLANE('',#317);
#266=PLANE('',#318);
#267=PLANE('',#319);
#268=PLANE('',#320);
#269=PLANE('',#321);
#270=PLANE('',#322);
#271=ADVANCED_FACE('',(#28),#256,.F.);
#272=ADVANCED_FACE('',(#29),#257,.F.);
#273=ADVANCED_FACE('',(#30),#258,.F.);
#274=ADVANCED_FACE('',(#31),#259,.T.);
#275=ADVANCED_FACE('',(#32),#23,.T.);
#276=ADVANCED_FACE('',(#33),#260,.T.);
#277=ADVANCED_FACE('',(#34),#261,.T.);
#278=ADVANCED_FACE('',(#35),#262,.T.);
#279=ADVANCED_FACE('',(#36),#263,.T.);
#280=ADVANCED_FACE('',(#37),#264,.F.);
#281=ADVANCED_FACE('',(#38),#265,.T.);
#282=ADVANCED_FACE('',(#39),#266,.T.);
#283=ADVANCED_FACE('',(#40),#267,.T.);
#284=ADVANCED_FACE('',(#41),#268,.T.);
#285=ADVANCED_FACE('',(#42),#269,.T.);
#286=ADVANCED_FACE('',(#43),#270,.F.);
#287=CLOSED_SHELL('',(#271,#272,#273,#274,#275,#276,#277,#278,#279,#280));
#288=CLOSED_SHELL('',(#281,#282,#283,#284,#285,#286));
#289=DERIVED_UNIT_ELEMENT(#291,1.);
#290=DERIVED_UNIT_ELEMENT(#488,-3.);
#291=(
MASS_UNIT()
NAMED_UNIT(*)
SI_UNIT(.KILO.,.GRAM.)
);
#292=DERIVED_UNIT((#289,#290));
#293=MEASURE_REPRESENTATION_ITEM('density measure',
POSITIVE_RATIO_MEASURE(7850.),#292);
#294=PROPERTY_DEFINITION_REPRESENTATION(#299,#296);
#295=PROPERTY_DEFINITION_REPRESENTATION(#300,#297);
#296=REPRESENTATION('material name',(#298),#485);
#297=REPRESENTATION('density',(#293),#485);
#298=DESCRIPTIVE_REPRESENTATION_ITEM('Steel','Steel');
#299=PROPERTY_DEFINITION('material property','material name',#500);
#300=PROPERTY_DEFINITION('material property','density of part',#500);
#301=AXIS2_PLACEMENT_3D('placement',#402,#324,#325);
#302=AXIS2_PLACEMENT_3D('placement',#403,#326,#327);
#303=AXIS2_PLACEMENT_3D('',#404,#328,#329);
#304=AXIS2_PLACEMENT_3D('',#413,#334,#335);
#305=AXIS2_PLACEMENT_3D('',#419,#339,#340);
#306=AXIS2_PLACEMENT_3D('',#425,#344,#345);
#307=AXIS2_PLACEMENT_3D('',#426,#346,#347);
#308=AXIS2_PLACEMENT_3D('',#427,#348,#349);
#309=AXIS2_PLACEMENT_3D('',#429,#350,#351);
#310=AXIS2_PLACEMENT_3D('',#433,#353,#354);
#311=AXIS2_PLACEMENT_3D('',#436,#356,#357);
#312=AXIS2_PLACEMENT_3D('',#437,#358,#359);
#313=AXIS2_PLACEMENT_3D('',#446,#364,#365);
#314=AXIS2_PLACEMENT_3D('',#449,#368,#369);
#315=AXIS2_PLACEMENT_3D('',#452,#372,#373);
#316=AXIS2_PLACEMENT_3D('',#453,#374,#375);
#317=AXIS2_PLACEMENT_3D('',#454,#376,#377);
#318=AXIS2_PLACEMENT_3D('',#463,#382,#383);
#319=AXIS2_PLACEMENT_3D('',#469,#387,#388);
#320=AXIS2_PLACEMENT_3D('',#475,#392,#393);
#321=AXIS2_PLACEMENT_3D('',#478,#396,#397);
#322=AXIS2_PLACEMENT_3D('',#479,#398,#399);
#323=AXIS2_PLACEMENT_3D('',#480,#400,#401);
#324=DIRECTION('axis',(0.,0.,1.));
#325=DIRECTION('refdir',(1.,0.,0.));
#326=DIRECTION('axis',(0.,0.,1.));
#327=DIRECTION('refdir',(1.,0.,0.));
#328=DIRECTION('center_axis',(0.,1.,0.));
#329=DIRECTION('ref_axis',(1.,0.,0.));
#330=DIRECTION('',(1.,0.,0.));
#331=DIRECTION('',(0.,0.,-1.));
#332=DIRECTION('',(1.,0.,0.));
#333=DIRECTION('',(0.,0.,-1.));
#334=DIRECTION('center_axis',(-1.,0.,0.));
#335=DIRECTION('ref_axis',(0.,1.,0.));
#336=DIRECTION('',(0.,1.,0.));
#337=DIRECTION('',(0.,0.,-1.));
#338=DIRECTION('',(0.,1.,0.));
#339=DIRECTION('center_axis',(0.,-1.,0.));
#340=DIRECTION('ref_axis',(-1.,0.,0.));
#341=DIRECTION('',(-1.,0.,0.));
#342=DIRECTION('',(0.,0.,1.));
#343=DIRECTION('',(-1.,0.,0.));
#344=DIRECTION('center_axis',(0.,0.,1.));
#345=DIRECTION('ref_axis',(-1.,0.,0.));
#346=DIRECTION('center_axis',(0.,0.,-1.));
#347=DIRECTION('ref_axis',(1.,0.,0.));
#348=DIRECTION('center_axis',(0.,0.,1.));
#349=DIRECTION('ref_axis',(6.12323399573677E-17,-1.,0.));
#350=DIRECTION('center_axis',(0.,0.,1.));
#351=DIRECTION('ref_axis',(1.,0.,0.));
#352=DIRECTION('',(0.,0.,1.));
#353=DIRECTION('center_axis',(0.,0.,1.));
#354=DIRECTION('ref_axis',(1.,0.,0.));
#355=DIRECTION('',(0.,0.,1.));
#356=DIRECTION('center_axis',(0.,0.,1.));
#357=DIRECTION('ref_axis',(1.,0.,0.));
#358=DIRECTION('center_axis',(0.,1.,0.));
#359=DIRECTION('ref_axis',(-1.,0.,0.));
#360=DIRECTION('',(1.,0.,0.));
#361=DIRECTION('',(0.,0.,1.));
#362=DIRECTION('',(-1.,0.,0.));
#363=DIRECTION('',(0.,0.,1.));
#364=DIRECTION('center_axis',(1.,0.,0.));
#365=DIRECTION('ref_axis',(0.,1.,0.));
#366=DIRECTION('',(0.,-1.,0.));
#367=DIRECTION('',(0.,1.,0.));
#368=DIRECTION('center_axis',(-1.,0.,0.));
#369=DIRECTION('ref_axis',(0.,-1.,0.));
#370=DIRECTION('',(0.,1.,0.));
#371=DIRECTION('',(0.,-1.,0.));
#372=DIRECTION('center_axis',(0.,0.,1.));
#373=DIRECTION('ref_axis',(1.,0.,0.));
#374=DIRECTION('center_axis',(0.,0.,1.));
#375=DIRECTION('ref_axis',(1.,0.,0.));
#376=DIRECTION('center_axis',(-1.,0.,0.));
#377=DIRECTION('ref_axis',(0.,-1.,0.));
#378=DIRECTION('',(0.,1.,0.));
#379=DIRECTION('',(0.,0.,1.));
#380=DIRECTION('',(0.,-1.,0.));
#381=DIRECTION('',(0.,0.,1.));
#382=DIRECTION('center_axis',(0.,1.,0.));
#383=DIRECTION('ref_axis',(-1.,0.,0.));
#384=DIRECTION('',(1.,0.,0.));
#385=DIRECTION('',(-1.,0.,0.));
#386=DIRECTION('',(0.,0.,1.));
#387=DIRECTION('center_axis',(1.,0.,0.));
#388=DIRECTION('ref_axis',(0.,1.,0.));
#389=DIRECTION('',(0.,-1.,0.));
#390=DIRECTION('',(0.,1.,0.));
#391=DIRECTION('',(0.,0.,1.));
#392=DIRECTION('center_axis',(0.,-1.,0.));
#393=DIRECTION('ref_axis',(1.,0.,0.));
#394=DIRECTION('',(-1.,0.,0.));
#395=DIRECTION('',(1.,0.,0.));
#396=DIRECTION('center_axis',(0.,0.,1.));
#397=DIRECTION('ref_axis',(1.,0.,0.));
#398=DIRECTION('center_axis',(0.,0.,1.));
#399=DIRECTION('ref_axis',(1.,0.,0.));
#400=DIRECTION('',(0.,0.,1.));
#401=DIRECTION('',(0.707106781186548,-0.707106781186548,0.));
#402=CARTESIAN_POINT('',(0.,0.,0.));
#403=CARTESIAN_POINT('',(0.,0.,0.));
#404=CARTESIAN_POINT('Origin',(10.,10.,50.));
#405=CARTESIAN_POINT('',(10.,10.,50.));
#406=CARTESIAN_POINT('',(17.3205080756888,10.,50.));
#407=CARTESIAN_POINT('',(5.,10.,50.));
#408=CARTESIAN_POINT('',(10.,10.,20.));
#409=CARTESIAN_POINT('',(10.,10.,50.));
#410=CARTESIAN_POINT('',(17.3205080756888,10.,20.));
#411=CARTESIAN_POINT('',(10.,10.,20.));
#412=CARTESIAN_POINT('',(17.3205080756888,10.,0.));
#413=CARTESIAN_POINT('Origin',(10.,-10.,50.));
#414=CARTESIAN_POINT('',(10.,-10.,50.));
#415=CARTESIAN_POINT('',(10.,-2.5,50.));
#416=CARTESIAN_POINT('',(10.,-10.,20.));
#417=CARTESIAN_POINT('',(10.,-10.,50.));
#418=CARTESIAN_POINT('',(10.,-10.,20.));
#419=CARTESIAN_POINT('Origin',(17.3205080756888,-10.,50.));
#420=CARTESIAN_POINT('',(17.3205080756888,-10.,50.));
#421=CARTESIAN_POINT('',(8.66025403784439,-10.,50.));
#422=CARTESIAN_POINT('',(17.3205080756888,-10.,20.));
#423=CARTESIAN_POINT('',(17.3205080756888,-10.,0.));
#424=CARTESIAN_POINT('',(30.,-10.,20.));
#425=CARTESIAN_POINT('Origin',(15.,-2.22044604925031E-15,20.));
#426=CARTESIAN_POINT('Origin',(0.,0.,20.));
#427=CARTESIAN_POINT('Origin',(0.,0.,0.));
#428=CARTESIAN_POINT('',(-10.,17.3205080756888,50.));
#429=CARTESIAN_POINT('Origin',(0.,0.,50.));
#430=CARTESIAN_POINT('',(-10.,17.3205080756888,0.));
#431=CARTESIAN_POINT('',(-10.,17.3205080756888,0.));
#432=CARTESIAN_POINT('',(10.,17.3205080756888,0.));
#433=CARTESIAN_POINT('Origin',(0.,0.,0.));
#434=CARTESIAN_POINT('',(10.,17.3205080756888,50.));
#435=CARTESIAN_POINT('',(10.,17.3205080756888,0.));
#436=CARTESIAN_POINT('Origin',(0.,0.,50.));
#437=CARTESIAN_POINT('Origin',(10.,30.,0.));
#438=CARTESIAN_POINT('',(-10.,30.,0.));
#439=CARTESIAN_POINT('',(10.,30.,0.));
#440=CARTESIAN_POINT('',(-10.,30.,0.));
#441=CARTESIAN_POINT('',(-10.,30.,50.));
#442=CARTESIAN_POINT('',(-10.,30.,0.));
#443=CARTESIAN_POINT('',(10.,30.,50.));
#444=CARTESIAN_POINT('',(-10.,30.,50.));
#445=CARTESIAN_POINT('',(10.,30.,0.));
#446=CARTESIAN_POINT('Origin',(10.,17.3205080756888,0.));
#447=CARTESIAN_POINT('',(10.,30.,0.));
#448=CARTESIAN_POINT('',(10.,30.,50.));
#449=CARTESIAN_POINT('Origin',(-10.,30.,0.));
#450=CARTESIAN_POINT('',(-10.,10.,0.));
#451=CARTESIAN_POINT('',(-10.,10.,50.));
#452=CARTESIAN_POINT('Origin',(0.,5.,50.));
#453=CARTESIAN_POINT('Origin',(0.,5.,0.));
#454=CARTESIAN_POINT('Origin',(-300.,100.,0.));
#455=CARTESIAN_POINT('',(-300.,0.,0.));
#456=CARTESIAN_POINT('',(-300.,100.,0.));
#457=CARTESIAN_POINT('',(-300.,0.,0.));
#458=CARTESIAN_POINT('',(-300.,0.,50.));
#459=CARTESIAN_POINT('',(-300.,0.,0.));
#460=CARTESIAN_POINT('',(-300.,100.,50.));
#461=CARTESIAN_POINT('',(-300.,0.,50.));
#462=CARTESIAN_POINT('',(-300.,100.,0.));
#463=CARTESIAN_POINT('Origin',(-200.,100.,0.));
#464=CARTESIAN_POINT('',(-200.,100.,0.));
#465=CARTESIAN_POINT('',(-300.,100.,0.));
#466=CARTESIAN_POINT('',(-200.,100.,50.));
#467=CARTESIAN_POINT('',(-300.,100.,50.));
#468=CARTESIAN_POINT('',(-200.,100.,0.));
#469=CARTESIAN_POINT('Origin',(-200.,0.,0.));
#470=CARTESIAN_POINT('',(-200.,0.,0.));
#471=CARTESIAN_POINT('',(-200.,100.,0.));
#472=CARTESIAN_POINT('',(-200.,0.,50.));
#473=CARTESIAN_POINT('',(-200.,100.,50.));
#474=CARTESIAN_POINT('',(-200.,0.,0.));
#475=CARTESIAN_POINT('Origin',(-300.,0.,0.));
#476=CARTESIAN_POINT('',(-200.,0.,0.));
#477=CARTESIAN_POINT('',(-200.,0.,50.));
#478=CARTESIAN_POINT('Origin',(-250.,50.,50.));
#479=CARTESIAN_POINT('Origin',(-250.,50.,0.));
#480=CARTESIAN_POINT('',(-250.,50.,50.));
#481=UNCERTAINTY_MEASURE_WITH_UNIT(LENGTH_MEASURE(0.01),#487,
'DISTANCE_ACCURACY_VALUE',
'Maximum model space distance between geometric entities at asserted c
onnectivities');
#482=UNCERTAINTY_MEASURE_WITH_UNIT(LENGTH_MEASURE(0.01),#487,
'DISTANCE_ACCURACY_VALUE',
'Maximum model space distance between geometric entities at asserted c
onnectivities');
#483=UNCERTAINTY_MEASURE_WITH_UNIT(LENGTH_MEASURE(0.01),#487,
'DISTANCE_ACCURACY_VALUE',
'Maximum model space distance between geometric entities at asserted c
onnectivities');
#484=(
GEOMETRIC_REPRESENTATION_CONTEXT(3)
GLOBAL_UNCERTAINTY_ASSIGNED_CONTEXT((#481))
GLOBAL_UNIT_ASSIGNED_CONTEXT((#487,#489,#490))
REPRESENTATION_CONTEXT('','3D')
);
#485=(
GEOMETRIC_REPRESENTATION_CONTEXT(3)
GLOBAL_UNCERTAINTY_ASSIGNED_CONTEXT((#482))
GLOBAL_UNIT_ASSIGNED_CONTEXT((#487,#489,#490))
REPRESENTATION_CONTEXT('','3D')
);
#486=(
GEOMETRIC_REPRESENTATION_CONTEXT(3)
GLOBAL_UNCERTAINTY_ASSIGNED_CONTEXT((#483))
GLOBAL_UNIT_ASSIGNED_CONTEXT((#487,#489,#490))
REPRESENTATION_CONTEXT('','3D')
);
#487=(
LENGTH_UNIT()
NAMED_UNIT(*)
SI_UNIT(.MILLI.,.METRE.)
);
#488=(
LENGTH_UNIT()
NAMED_UNIT(*)
SI_UNIT($,.METRE.)
);
#489=(
NAMED_UNIT(*)
PLANE_ANGLE_UNIT()
SI_UNIT($,.RADIAN.)
);
#490=(
NAMED_UNIT(*)
SI_UNIT($,.STERADIAN.)
SOLID_ANGLE_UNIT()
);
#491=SHAPE_DEFINITION_REPRESENTATION(#493,#496);
#492=SHAPE_DEFINITION_REPRESENTATION(#494,#497);
#493=PRODUCT_DEFINITION_SHAPE('',$,#499);
#494=PRODUCT_DEFINITION_SHAPE('',$,#500);
#495=PRODUCT_DEFINITION_SHAPE($,$,#14);
#496=SHAPE_REPRESENTATION('',(#301,#323),#484);
#497=SHAPE_REPRESENTATION('',(#302),#485);
#498=PRODUCT_DEFINITION_CONTEXT('part definition',#506,'design');
#499=PRODUCT_DEFINITION('(Unsaved)','(Unsaved)',#501,#498);
#500=PRODUCT_DEFINITION('Component1','Component1',#502,#498);
#501=PRODUCT_DEFINITION_FORMATION('',$,#508);
#502=PRODUCT_DEFINITION_FORMATION('',$,#509);
#503=PRODUCT_RELATED_PRODUCT_CATEGORY('(Unsaved)','(Unsaved)',(#508));
#504=PRODUCT_RELATED_PRODUCT_CATEGORY('Component1','Component1',(#509));
#505=APPLICATION_PROTOCOL_DEFINITION('international standard',
'automotive_design',2009,#506);
#506=APPLICATION_CONTEXT(
'Core Data for Automotive Mechanical Design Process');
#507=PRODUCT_CONTEXT('part definition',#506,'mechanical');
#508=PRODUCT('(Unsaved)','(Unsaved)',$,(#507));
#509=PRODUCT('Component1','Component1',$,(#507));
#510=PRESENTATION_STYLE_ASSIGNMENT((#511));
#511=SURFACE_STYLE_USAGE(.BOTH.,#512);
#512=SURFACE_SIDE_STYLE('',(#513));
#513=SURFACE_STYLE_FILL_AREA(#514);
#514=FILL_AREA_STYLE('Steel - Satin',(#515));
#515=FILL_AREA_STYLE_COLOUR('Steel - Satin',#516);
#516=COLOUR_RGB('Steel - Satin',0.627450980392157,0.627450980392157,0.627450980392157);
ENDSEC;
END-ISO-10303-21;
