ISO-10303-21;
HEADER;
/* Generated by software containing ST-Developer
 * from STEP Tools, Inc. (www.steptools.com) 
 */

FILE_DESCRIPTION(
/* description */ (''),
/* implementation_level */ '2;1');

FILE_NAME(
/* name */ 'E:\\projects\\lambouj\\cadmesh\\data\\ManyBodies.stp',
/* time_stamp */ '2020-12-15T17:10:42+00:00',
/* author */ (''),
/* organization */ (''),
/* preprocessor_version */ 'ST-DEVELOPER v18.1',
/* originating_system */ 'Autodesk Translation Framework',
/* authorisation */ '');

FILE_SCHEMA (('AUTOMOTIVE_DESIGN { 1 0 10303 214 3 1 1 }'));
ENDSEC;

DATA;
#10=MECHANICAL_DESIGN_GEOMETRIC_PRESENTATION_REPRESENTATION('',(#21,#22,
#23,#24),#705);
#11=SHAPE_REPRESENTATION_RELATIONSHIP('SRR','None',#711,#12);
#12=ADVANCED_BREP_SHAPE_REPRESENTATION('',(#435,#436,#13,#14),#704);
#13=MANIFOLD_SOLID_BREP('',#433);
#14=MANIFOLD_SOLID_BREP('',#434);
#15=TOROIDAL_SURFACE('',#461,24.7545,5.);
#16=CIRCLE('',#451,20.);
#17=CIRCLE('',#452,20.);
#18=CIRCLE('',#462,5.);
#19=CIRCLE('',#463,19.7545);
#20=CYLINDRICAL_SURFACE('',#450,20.);
#21=STYLED_ITEM('',(#720),#435);
#22=STYLED_ITEM('',(#720),#436);
#23=STYLED_ITEM('',(#720),#13);
#24=STYLED_ITEM('',(#720),#14);
#25=ORIENTED_CLOSED_SHELL('',*,#430,.F.);
#26=ORIENTED_CLOSED_SHELL('',*,#432,.F.);
#27=FACE_OUTER_BOUND('',#55,.T.);
#28=FACE_OUTER_BOUND('',#56,.T.);
#29=FACE_OUTER_BOUND('',#57,.T.);
#30=FACE_OUTER_BOUND('',#58,.T.);
#31=FACE_OUTER_BOUND('',#59,.T.);
#32=FACE_OUTER_BOUND('',#60,.T.);
#33=FACE_OUTER_BOUND('',#61,.T.);
#34=FACE_OUTER_BOUND('',#62,.T.);
#35=FACE_OUTER_BOUND('',#63,.T.);
#36=FACE_OUTER_BOUND('',#64,.T.);
#37=FACE_OUTER_BOUND('',#65,.T.);
#38=FACE_OUTER_BOUND('',#66,.T.);
#39=FACE_OUTER_BOUND('',#67,.T.);
#40=FACE_OUTER_BOUND('',#68,.T.);
#41=FACE_OUTER_BOUND('',#69,.T.);
#42=FACE_OUTER_BOUND('',#70,.T.);
#43=FACE_OUTER_BOUND('',#71,.T.);
#44=FACE_OUTER_BOUND('',#72,.T.);
#45=FACE_OUTER_BOUND('',#73,.T.);
#46=FACE_OUTER_BOUND('',#74,.T.);
#47=FACE_OUTER_BOUND('',#75,.T.);
#48=FACE_OUTER_BOUND('',#76,.T.);
#49=FACE_OUTER_BOUND('',#77,.T.);
#50=FACE_OUTER_BOUND('',#78,.T.);
#51=FACE_OUTER_BOUND('',#79,.T.);
#52=FACE_OUTER_BOUND('',#80,.T.);
#53=FACE_OUTER_BOUND('',#81,.T.);
#54=FACE_OUTER_BOUND('',#82,.T.);
#55=EDGE_LOOP('',(#269,#270,#271,#272));
#56=EDGE_LOOP('',(#273,#274,#275,#276));
#57=EDGE_LOOP('',(#277,#278,#279,#280));
#58=EDGE_LOOP('',(#281,#282,#283,#284));
#59=EDGE_LOOP('',(#285,#286,#287,#288));
#60=EDGE_LOOP('',(#289,#290,#291,#292));
#61=EDGE_LOOP('',(#293,#294,#295,#296));
#62=EDGE_LOOP('',(#297,#298,#299,#300));
#63=EDGE_LOOP('',(#301,#302,#303,#304));
#64=EDGE_LOOP('',(#305,#306,#307,#308));
#65=EDGE_LOOP('',(#309,#310,#311,#312));
#66=EDGE_LOOP('',(#313,#314,#315,#316));
#67=EDGE_LOOP('',(#317,#318,#319,#320));
#68=EDGE_LOOP('',(#321));
#69=EDGE_LOOP('',(#322));
#70=EDGE_LOOP('',(#323,#324,#325,#326));
#71=EDGE_LOOP('',(#327,#328,#329,#330));
#72=EDGE_LOOP('',(#331,#332,#333,#334));
#73=EDGE_LOOP('',(#335,#336,#337,#338));
#74=EDGE_LOOP('',(#339,#340,#341,#342));
#75=EDGE_LOOP('',(#343,#344,#345,#346));
#76=EDGE_LOOP('',(#347,#348,#349,#350));
#77=EDGE_LOOP('',(#351,#352,#353,#354));
#78=EDGE_LOOP('',(#355,#356,#357,#358));
#79=EDGE_LOOP('',(#359,#360,#361,#362));
#80=EDGE_LOOP('',(#363,#364,#365,#366));
#81=EDGE_LOOP('',(#367,#368,#369,#370));
#82=EDGE_LOOP('',(#371,#372,#373,#374));
#83=LINE('',#589,#132);
#84=LINE('',#591,#133);
#85=LINE('',#593,#134);
#86=LINE('',#594,#135);
#87=LINE('',#597,#136);
#88=LINE('',#599,#137);
#89=LINE('',#600,#138);
#90=LINE('',#603,#139);
#91=LINE('',#605,#140);
#92=LINE('',#606,#141);
#93=LINE('',#608,#142);
#94=LINE('',#609,#143);
#95=LINE('',#615,#144);
#96=LINE('',#617,#145);
#97=LINE('',#619,#146);
#98=LINE('',#620,#147);
#99=LINE('',#623,#148);
#100=LINE('',#625,#149);
#101=LINE('',#626,#150);
#102=LINE('',#629,#151);
#103=LINE('',#630,#152);
#104=LINE('',#633,#153);
#105=LINE('',#634,#154);
#106=LINE('',#636,#155);
#107=LINE('',#642,#156);
#108=LINE('',#649,#157);
#109=LINE('',#651,#158);
#110=LINE('',#653,#159);
#111=LINE('',#654,#160);
#112=LINE('',#657,#161);
#113=LINE('',#659,#162);
#114=LINE('',#660,#163);
#115=LINE('',#663,#164);
#116=LINE('',#664,#165);
#117=LINE('',#667,#166);
#118=LINE('',#668,#167);
#119=LINE('',#670,#168);
#120=LINE('',#679,#169);
#121=LINE('',#681,#170);
#122=LINE('',#683,#171);
#123=LINE('',#684,#172);
#124=LINE('',#687,#173);
#125=LINE('',#689,#174);
#126=LINE('',#690,#175);
#127=LINE('',#693,#176);
#128=LINE('',#695,#177);
#129=LINE('',#696,#178);
#130=LINE('',#698,#179);
#131=LINE('',#699,#180);
#132=VECTOR('',#474,10.);
#133=VECTOR('',#475,10.);
#134=VECTOR('',#476,10.);
#135=VECTOR('',#477,10.);
#136=VECTOR('',#480,10.);
#137=VECTOR('',#481,10.);
#138=VECTOR('',#482,10.);
#139=VECTOR('',#485,10.);
#140=VECTOR('',#486,10.);
#141=VECTOR('',#487,10.);
#142=VECTOR('',#490,10.);
#143=VECTOR('',#491,10.);
#144=VECTOR('',#498,10.);
#145=VECTOR('',#499,10.);
#146=VECTOR('',#500,10.);
#147=VECTOR('',#501,10.);
#148=VECTOR('',#504,10.);
#149=VECTOR('',#505,10.);
#150=VECTOR('',#506,10.);
#151=VECTOR('',#509,10.);
#152=VECTOR('',#510,10.);
#153=VECTOR('',#513,10.);
#154=VECTOR('',#514,10.);
#155=VECTOR('',#517,10.);
#156=VECTOR('',#524,20.);
#157=VECTOR('',#533,10.);
#158=VECTOR('',#534,10.);
#159=VECTOR('',#535,10.);
#160=VECTOR('',#536,10.);
#161=VECTOR('',#539,10.);
#162=VECTOR('',#540,10.);
#163=VECTOR('',#541,10.);
#164=VECTOR('',#544,10.);
#165=VECTOR('',#545,10.);
#166=VECTOR('',#548,10.);
#167=VECTOR('',#549,10.);
#168=VECTOR('',#552,10.);
#169=VECTOR('',#563,10.);
#170=VECTOR('',#564,10.);
#171=VECTOR('',#565,10.);
#172=VECTOR('',#566,10.);
#173=VECTOR('',#569,10.);
#174=VECTOR('',#570,10.);
#175=VECTOR('',#571,10.);
#176=VECTOR('',#574,10.);
#177=VECTOR('',#575,10.);
#178=VECTOR('',#576,10.);
#179=VECTOR('',#579,10.);
#180=VECTOR('',#580,10.);
#181=VERTEX_POINT('',#587);
#182=VERTEX_POINT('',#588);
#183=VERTEX_POINT('',#590);
#184=VERTEX_POINT('',#592);
#185=VERTEX_POINT('',#596);
#186=VERTEX_POINT('',#598);
#187=VERTEX_POINT('',#602);
#188=VERTEX_POINT('',#604);
#189=VERTEX_POINT('',#613);
#190=VERTEX_POINT('',#614);
#191=VERTEX_POINT('',#616);
#192=VERTEX_POINT('',#618);
#193=VERTEX_POINT('',#622);
#194=VERTEX_POINT('',#624);
#195=VERTEX_POINT('',#628);
#196=VERTEX_POINT('',#632);
#197=VERTEX_POINT('',#639);
#198=VERTEX_POINT('',#641);
#199=VERTEX_POINT('',#647);
#200=VERTEX_POINT('',#648);
#201=VERTEX_POINT('',#650);
#202=VERTEX_POINT('',#652);
#203=VERTEX_POINT('',#656);
#204=VERTEX_POINT('',#658);
#205=VERTEX_POINT('',#662);
#206=VERTEX_POINT('',#666);
#207=VERTEX_POINT('',#673);
#208=VERTEX_POINT('',#677);
#209=VERTEX_POINT('',#678);
#210=VERTEX_POINT('',#680);
#211=VERTEX_POINT('',#682);
#212=VERTEX_POINT('',#686);
#213=VERTEX_POINT('',#688);
#214=VERTEX_POINT('',#692);
#215=VERTEX_POINT('',#694);
#216=EDGE_CURVE('',#181,#182,#83,.T.);
#217=EDGE_CURVE('',#181,#183,#84,.T.);
#218=EDGE_CURVE('',#184,#183,#85,.T.);
#219=EDGE_CURVE('',#182,#184,#86,.T.);
#220=EDGE_CURVE('',#182,#185,#87,.T.);
#221=EDGE_CURVE('',#186,#184,#88,.T.);
#222=EDGE_CURVE('',#185,#186,#89,.T.);
#223=EDGE_CURVE('',#185,#187,#90,.T.);
#224=EDGE_CURVE('',#188,#186,#91,.T.);
#225=EDGE_CURVE('',#187,#188,#92,.T.);
#226=EDGE_CURVE('',#187,#181,#93,.T.);
#227=EDGE_CURVE('',#183,#188,#94,.T.);
#228=EDGE_CURVE('',#189,#190,#95,.T.);
#229=EDGE_CURVE('',#190,#191,#96,.T.);
#230=EDGE_CURVE('',#191,#192,#97,.T.);
#231=EDGE_CURVE('',#192,#189,#98,.T.);
#232=EDGE_CURVE('',#192,#193,#99,.T.);
#233=EDGE_CURVE('',#193,#194,#100,.T.);
#234=EDGE_CURVE('',#189,#194,#101,.T.);
#235=EDGE_CURVE('',#194,#195,#102,.T.);
#236=EDGE_CURVE('',#190,#195,#103,.T.);
#237=EDGE_CURVE('',#191,#196,#104,.T.);
#238=EDGE_CURVE('',#196,#193,#105,.T.);
#239=EDGE_CURVE('',#195,#196,#106,.T.);
#240=EDGE_CURVE('',#197,#197,#16,.T.);
#241=EDGE_CURVE('',#197,#198,#107,.T.);
#242=EDGE_CURVE('',#198,#198,#17,.T.);
#243=EDGE_CURVE('',#199,#200,#108,.T.);
#244=EDGE_CURVE('',#200,#201,#109,.T.);
#245=EDGE_CURVE('',#201,#202,#110,.T.);
#246=EDGE_CURVE('',#202,#199,#111,.T.);
#247=EDGE_CURVE('',#202,#203,#112,.T.);
#248=EDGE_CURVE('',#203,#204,#113,.T.);
#249=EDGE_CURVE('',#199,#204,#114,.T.);
#250=EDGE_CURVE('',#204,#205,#115,.T.);
#251=EDGE_CURVE('',#200,#205,#116,.T.);
#252=EDGE_CURVE('',#201,#206,#117,.T.);
#253=EDGE_CURVE('',#206,#203,#118,.T.);
#254=EDGE_CURVE('',#205,#206,#119,.T.);
#255=EDGE_CURVE('',#207,#207,#18,.T.);
#256=EDGE_CURVE('',#207,#207,#19,.T.);
#257=EDGE_CURVE('',#208,#209,#120,.T.);
#258=EDGE_CURVE('',#208,#210,#121,.T.);
#259=EDGE_CURVE('',#211,#210,#122,.T.);
#260=EDGE_CURVE('',#209,#211,#123,.T.);
#261=EDGE_CURVE('',#209,#212,#124,.T.);
#262=EDGE_CURVE('',#213,#211,#125,.T.);
#263=EDGE_CURVE('',#212,#213,#126,.T.);
#264=EDGE_CURVE('',#212,#214,#127,.T.);
#265=EDGE_CURVE('',#215,#213,#128,.T.);
#266=EDGE_CURVE('',#214,#215,#129,.T.);
#267=EDGE_CURVE('',#214,#208,#130,.T.);
#268=EDGE_CURVE('',#210,#215,#131,.T.);
#269=ORIENTED_EDGE('',*,*,#216,.F.);
#270=ORIENTED_EDGE('',*,*,#217,.T.);
#271=ORIENTED_EDGE('',*,*,#218,.F.);
#272=ORIENTED_EDGE('',*,*,#219,.F.);
#273=ORIENTED_EDGE('',*,*,#220,.F.);
#274=ORIENTED_EDGE('',*,*,#219,.T.);
#275=ORIENTED_EDGE('',*,*,#221,.F.);
#276=ORIENTED_EDGE('',*,*,#222,.F.);
#277=ORIENTED_EDGE('',*,*,#223,.F.);
#278=ORIENTED_EDGE('',*,*,#222,.T.);
#279=ORIENTED_EDGE('',*,*,#224,.F.);
#280=ORIENTED_EDGE('',*,*,#225,.F.);
#281=ORIENTED_EDGE('',*,*,#226,.F.);
#282=ORIENTED_EDGE('',*,*,#225,.T.);
#283=ORIENTED_EDGE('',*,*,#227,.F.);
#284=ORIENTED_EDGE('',*,*,#217,.F.);
#285=ORIENTED_EDGE('',*,*,#227,.T.);
#286=ORIENTED_EDGE('',*,*,#224,.T.);
#287=ORIENTED_EDGE('',*,*,#221,.T.);
#288=ORIENTED_EDGE('',*,*,#218,.T.);
#289=ORIENTED_EDGE('',*,*,#226,.T.);
#290=ORIENTED_EDGE('',*,*,#216,.T.);
#291=ORIENTED_EDGE('',*,*,#220,.T.);
#292=ORIENTED_EDGE('',*,*,#223,.T.);
#293=ORIENTED_EDGE('',*,*,#228,.T.);
#294=ORIENTED_EDGE('',*,*,#229,.T.);
#295=ORIENTED_EDGE('',*,*,#230,.T.);
#296=ORIENTED_EDGE('',*,*,#231,.T.);
#297=ORIENTED_EDGE('',*,*,#231,.F.);
#298=ORIENTED_EDGE('',*,*,#232,.T.);
#299=ORIENTED_EDGE('',*,*,#233,.T.);
#300=ORIENTED_EDGE('',*,*,#234,.F.);
#301=ORIENTED_EDGE('',*,*,#228,.F.);
#302=ORIENTED_EDGE('',*,*,#234,.T.);
#303=ORIENTED_EDGE('',*,*,#235,.T.);
#304=ORIENTED_EDGE('',*,*,#236,.F.);
#305=ORIENTED_EDGE('',*,*,#230,.F.);
#306=ORIENTED_EDGE('',*,*,#237,.T.);
#307=ORIENTED_EDGE('',*,*,#238,.T.);
#308=ORIENTED_EDGE('',*,*,#232,.F.);
#309=ORIENTED_EDGE('',*,*,#229,.F.);
#310=ORIENTED_EDGE('',*,*,#236,.T.);
#311=ORIENTED_EDGE('',*,*,#239,.T.);
#312=ORIENTED_EDGE('',*,*,#237,.F.);
#313=ORIENTED_EDGE('',*,*,#235,.F.);
#314=ORIENTED_EDGE('',*,*,#233,.F.);
#315=ORIENTED_EDGE('',*,*,#238,.F.);
#316=ORIENTED_EDGE('',*,*,#239,.F.);
#317=ORIENTED_EDGE('',*,*,#240,.F.);
#318=ORIENTED_EDGE('',*,*,#241,.T.);
#319=ORIENTED_EDGE('',*,*,#242,.F.);
#320=ORIENTED_EDGE('',*,*,#241,.F.);
#321=ORIENTED_EDGE('',*,*,#242,.T.);
#322=ORIENTED_EDGE('',*,*,#240,.T.);
#323=ORIENTED_EDGE('',*,*,#243,.T.);
#324=ORIENTED_EDGE('',*,*,#244,.T.);
#325=ORIENTED_EDGE('',*,*,#245,.T.);
#326=ORIENTED_EDGE('',*,*,#246,.T.);
#327=ORIENTED_EDGE('',*,*,#246,.F.);
#328=ORIENTED_EDGE('',*,*,#247,.T.);
#329=ORIENTED_EDGE('',*,*,#248,.T.);
#330=ORIENTED_EDGE('',*,*,#249,.F.);
#331=ORIENTED_EDGE('',*,*,#243,.F.);
#332=ORIENTED_EDGE('',*,*,#249,.T.);
#333=ORIENTED_EDGE('',*,*,#250,.T.);
#334=ORIENTED_EDGE('',*,*,#251,.F.);
#335=ORIENTED_EDGE('',*,*,#245,.F.);
#336=ORIENTED_EDGE('',*,*,#252,.T.);
#337=ORIENTED_EDGE('',*,*,#253,.T.);
#338=ORIENTED_EDGE('',*,*,#247,.F.);
#339=ORIENTED_EDGE('',*,*,#244,.F.);
#340=ORIENTED_EDGE('',*,*,#251,.T.);
#341=ORIENTED_EDGE('',*,*,#254,.T.);
#342=ORIENTED_EDGE('',*,*,#252,.F.);
#343=ORIENTED_EDGE('',*,*,#250,.F.);
#344=ORIENTED_EDGE('',*,*,#248,.F.);
#345=ORIENTED_EDGE('',*,*,#253,.F.);
#346=ORIENTED_EDGE('',*,*,#254,.F.);
#347=ORIENTED_EDGE('',*,*,#255,.F.);
#348=ORIENTED_EDGE('',*,*,#256,.T.);
#349=ORIENTED_EDGE('',*,*,#255,.T.);
#350=ORIENTED_EDGE('',*,*,#256,.F.);
#351=ORIENTED_EDGE('',*,*,#257,.F.);
#352=ORIENTED_EDGE('',*,*,#258,.T.);
#353=ORIENTED_EDGE('',*,*,#259,.F.);
#354=ORIENTED_EDGE('',*,*,#260,.F.);
#355=ORIENTED_EDGE('',*,*,#261,.F.);
#356=ORIENTED_EDGE('',*,*,#260,.T.);
#357=ORIENTED_EDGE('',*,*,#262,.F.);
#358=ORIENTED_EDGE('',*,*,#263,.F.);
#359=ORIENTED_EDGE('',*,*,#264,.F.);
#360=ORIENTED_EDGE('',*,*,#263,.T.);
#361=ORIENTED_EDGE('',*,*,#265,.F.);
#362=ORIENTED_EDGE('',*,*,#266,.F.);
#363=ORIENTED_EDGE('',*,*,#267,.F.);
#364=ORIENTED_EDGE('',*,*,#266,.T.);
#365=ORIENTED_EDGE('',*,*,#268,.F.);
#366=ORIENTED_EDGE('',*,*,#258,.F.);
#367=ORIENTED_EDGE('',*,*,#268,.T.);
#368=ORIENTED_EDGE('',*,*,#265,.T.);
#369=ORIENTED_EDGE('',*,*,#262,.T.);
#370=ORIENTED_EDGE('',*,*,#259,.T.);
#371=ORIENTED_EDGE('',*,*,#267,.T.);
#372=ORIENTED_EDGE('',*,*,#257,.T.);
#373=ORIENTED_EDGE('',*,*,#261,.T.);
#374=ORIENTED_EDGE('',*,*,#264,.T.);
#375=PLANE('',#438);
#376=PLANE('',#439);
#377=PLANE('',#440);
#378=PLANE('',#441);
#379=PLANE('',#442);
#380=PLANE('',#443);
#381=PLANE('',#444);
#382=PLANE('',#445);
#383=PLANE('',#446);
#384=PLANE('',#447);
#385=PLANE('',#448);
#386=PLANE('',#449);
#387=PLANE('',#453);
#388=PLANE('',#454);
#389=PLANE('',#455);
#390=PLANE('',#456);
#391=PLANE('',#457);
#392=PLANE('',#458);
#393=PLANE('',#459);
#394=PLANE('',#460);
#395=PLANE('',#464);
#396=PLANE('',#465);
#397=PLANE('',#466);
#398=PLANE('',#467);
#399=PLANE('',#468);
#400=PLANE('',#469);
#401=ADVANCED_FACE('',(#27),#375,.T.);
#402=ADVANCED_FACE('',(#28),#376,.T.);
#403=ADVANCED_FACE('',(#29),#377,.T.);
#404=ADVANCED_FACE('',(#30),#378,.T.);
#405=ADVANCED_FACE('',(#31),#379,.T.);
#406=ADVANCED_FACE('',(#32),#380,.F.);
#407=ADVANCED_FACE('',(#33),#381,.T.);
#408=ADVANCED_FACE('',(#34),#382,.F.);
#409=ADVANCED_FACE('',(#35),#383,.F.);
#410=ADVANCED_FACE('',(#36),#384,.F.);
#411=ADVANCED_FACE('',(#37),#385,.F.);
#412=ADVANCED_FACE('',(#38),#386,.F.);
#413=ADVANCED_FACE('',(#39),#20,.T.);
#414=ADVANCED_FACE('',(#40),#387,.T.);
#415=ADVANCED_FACE('',(#41),#388,.T.);
#416=ADVANCED_FACE('',(#42),#389,.T.);
#417=ADVANCED_FACE('',(#43),#390,.F.);
#418=ADVANCED_FACE('',(#44),#391,.F.);
#419=ADVANCED_FACE('',(#45),#392,.F.);
#420=ADVANCED_FACE('',(#46),#393,.F.);
#421=ADVANCED_FACE('',(#47),#394,.F.);
#422=ADVANCED_FACE('',(#48),#15,.T.);
#423=ADVANCED_FACE('',(#49),#395,.T.);
#424=ADVANCED_FACE('',(#50),#396,.T.);
#425=ADVANCED_FACE('',(#51),#397,.T.);
#426=ADVANCED_FACE('',(#52),#398,.T.);
#427=ADVANCED_FACE('',(#53),#399,.T.);
#428=ADVANCED_FACE('',(#54),#400,.F.);
#429=CLOSED_SHELL('',(#401,#402,#403,#404,#405,#406));
#430=CLOSED_SHELL('',(#407,#408,#409,#410,#411,#412));
#431=CLOSED_SHELL('',(#413,#414,#415));
#432=CLOSED_SHELL('',(#416,#417,#418,#419,#420,#421));
#433=CLOSED_SHELL('',(#422));
#434=CLOSED_SHELL('',(#423,#424,#425,#426,#427,#428));
#435=BREP_WITH_VOIDS('',#429,(#25));
#436=BREP_WITH_VOIDS('',#431,(#26));
#437=AXIS2_PLACEMENT_3D('placement',#585,#470,#471);
#438=AXIS2_PLACEMENT_3D('',#586,#472,#473);
#439=AXIS2_PLACEMENT_3D('',#595,#478,#479);
#440=AXIS2_PLACEMENT_3D('',#601,#483,#484);
#441=AXIS2_PLACEMENT_3D('',#607,#488,#489);
#442=AXIS2_PLACEMENT_3D('',#610,#492,#493);
#443=AXIS2_PLACEMENT_3D('',#611,#494,#495);
#444=AXIS2_PLACEMENT_3D('',#612,#496,#497);
#445=AXIS2_PLACEMENT_3D('',#621,#502,#503);
#446=AXIS2_PLACEMENT_3D('',#627,#507,#508);
#447=AXIS2_PLACEMENT_3D('',#631,#511,#512);
#448=AXIS2_PLACEMENT_3D('',#635,#515,#516);
#449=AXIS2_PLACEMENT_3D('',#637,#518,#519);
#450=AXIS2_PLACEMENT_3D('',#638,#520,#521);
#451=AXIS2_PLACEMENT_3D('',#640,#522,#523);
#452=AXIS2_PLACEMENT_3D('',#643,#525,#526);
#453=AXIS2_PLACEMENT_3D('',#644,#527,#528);
#454=AXIS2_PLACEMENT_3D('',#645,#529,#530);
#455=AXIS2_PLACEMENT_3D('',#646,#531,#532);
#456=AXIS2_PLACEMENT_3D('',#655,#537,#538);
#457=AXIS2_PLACEMENT_3D('',#661,#542,#543);
#458=AXIS2_PLACEMENT_3D('',#665,#546,#547);
#459=AXIS2_PLACEMENT_3D('',#669,#550,#551);
#460=AXIS2_PLACEMENT_3D('',#671,#553,#554);
#461=AXIS2_PLACEMENT_3D('',#672,#555,#556);
#462=AXIS2_PLACEMENT_3D('',#674,#557,#558);
#463=AXIS2_PLACEMENT_3D('',#675,#559,#560);
#464=AXIS2_PLACEMENT_3D('',#676,#561,#562);
#465=AXIS2_PLACEMENT_3D('',#685,#567,#568);
#466=AXIS2_PLACEMENT_3D('',#691,#572,#573);
#467=AXIS2_PLACEMENT_3D('',#697,#577,#578);
#468=AXIS2_PLACEMENT_3D('',#700,#581,#582);
#469=AXIS2_PLACEMENT_3D('',#701,#583,#584);
#470=DIRECTION('axis',(0.,0.,1.));
#471=DIRECTION('refdir',(1.,0.,0.));
#472=DIRECTION('center_axis',(-1.,0.,0.));
#473=DIRECTION('ref_axis',(0.,-1.,0.));
#474=DIRECTION('',(0.,1.,0.));
#475=DIRECTION('',(0.,0.,1.));
#476=DIRECTION('',(0.,-1.,0.));
#477=DIRECTION('',(0.,0.,1.));
#478=DIRECTION('center_axis',(0.,1.,0.));
#479=DIRECTION('ref_axis',(-1.,0.,0.));
#480=DIRECTION('',(1.,0.,0.));
#481=DIRECTION('',(-1.,0.,0.));
#482=DIRECTION('',(0.,0.,1.));
#483=DIRECTION('center_axis',(1.,0.,0.));
#484=DIRECTION('ref_axis',(0.,1.,0.));
#485=DIRECTION('',(0.,-1.,0.));
#486=DIRECTION('',(0.,1.,0.));
#487=DIRECTION('',(0.,0.,1.));
#488=DIRECTION('center_axis',(0.,-1.,0.));
#489=DIRECTION('ref_axis',(1.,0.,0.));
#490=DIRECTION('',(-1.,0.,0.));
#491=DIRECTION('',(1.,0.,0.));
#492=DIRECTION('center_axis',(0.,0.,1.));
#493=DIRECTION('ref_axis',(1.,0.,0.));
#494=DIRECTION('center_axis',(0.,0.,1.));
#495=DIRECTION('ref_axis',(1.,0.,0.));
#496=DIRECTION('center_axis',(0.,0.,-1.));
#497=DIRECTION('ref_axis',(-1.,0.,0.));
#498=DIRECTION('',(-1.,0.,0.));
#499=DIRECTION('',(0.,1.,0.));
#500=DIRECTION('',(1.,0.,0.));
#501=DIRECTION('',(0.,-1.,0.));
#502=DIRECTION('center_axis',(1.,0.,0.));
#503=DIRECTION('ref_axis',(0.,-1.,0.));
#504=DIRECTION('',(0.,0.,-1.));
#505=DIRECTION('',(0.,-1.,0.));
#506=DIRECTION('',(0.,0.,-1.));
#507=DIRECTION('center_axis',(0.,-1.,0.));
#508=DIRECTION('ref_axis',(-1.,0.,0.));
#509=DIRECTION('',(-1.,0.,0.));
#510=DIRECTION('',(0.,0.,-1.));
#511=DIRECTION('center_axis',(0.,1.,0.));
#512=DIRECTION('ref_axis',(1.,0.,0.));
#513=DIRECTION('',(0.,0.,-1.));
#514=DIRECTION('',(1.,0.,0.));
#515=DIRECTION('center_axis',(-1.,0.,0.));
#516=DIRECTION('ref_axis',(0.,1.,0.));
#517=DIRECTION('',(0.,1.,0.));
#518=DIRECTION('center_axis',(0.,0.,-1.));
#519=DIRECTION('ref_axis',(-1.,0.,0.));
#520=DIRECTION('center_axis',(0.,1.,-2.22044604925031E-16));
#521=DIRECTION('ref_axis',(1.,0.,0.));
#522=DIRECTION('center_axis',(0.,1.,-2.22044604925031E-16));
#523=DIRECTION('ref_axis',(1.,0.,0.));
#524=DIRECTION('',(0.,-1.,2.22044604925031E-16));
#525=DIRECTION('center_axis',(0.,-1.,2.22044604925031E-16));
#526=DIRECTION('ref_axis',(1.,0.,0.));
#527=DIRECTION('center_axis',(0.,-1.,2.22044604925031E-16));
#528=DIRECTION('ref_axis',(-1.,0.,0.));
#529=DIRECTION('center_axis',(0.,1.,-2.22044604925031E-16));
#530=DIRECTION('ref_axis',(1.,0.,0.));
#531=DIRECTION('center_axis',(0.,1.,0.));
#532=DIRECTION('ref_axis',(0.,0.,1.));
#533=DIRECTION('',(-1.,0.,0.));
#534=DIRECTION('',(0.,0.,1.));
#535=DIRECTION('',(1.,0.,0.));
#536=DIRECTION('',(0.,0.,-1.));
#537=DIRECTION('center_axis',(1.,0.,0.));
#538=DIRECTION('ref_axis',(0.,-2.22044604925031E-16,-1.));
#539=DIRECTION('',(0.,1.,-2.46716227694479E-16));
#540=DIRECTION('',(0.,-2.22044604925031E-16,-1.));
#541=DIRECTION('',(0.,1.,-2.46716227694479E-16));
#542=DIRECTION('center_axis',(0.,-2.46716227694479E-16,-1.));
#543=DIRECTION('ref_axis',(-1.,0.,0.));
#544=DIRECTION('',(-1.,0.,0.));
#545=DIRECTION('',(0.,1.,-2.46716227694479E-16));
#546=DIRECTION('center_axis',(0.,2.46716227694479E-16,1.));
#547=DIRECTION('ref_axis',(1.,0.,0.));
#548=DIRECTION('',(0.,1.,-2.46716227694479E-16));
#549=DIRECTION('',(1.,0.,0.));
#550=DIRECTION('center_axis',(-1.,0.,0.));
#551=DIRECTION('ref_axis',(0.,2.22044604925031E-16,1.));
#552=DIRECTION('',(0.,2.22044604925031E-16,1.));
#553=DIRECTION('center_axis',(0.,1.,-2.46716227694479E-16));
#554=DIRECTION('ref_axis',(0.,2.46716227694479E-16,1.));
#555=DIRECTION('center_axis',(0.,0.,1.));
#556=DIRECTION('ref_axis',(1.,0.,0.));
#557=DIRECTION('center_axis',(0.,-1.,0.));
#558=DIRECTION('ref_axis',(-1.,0.,0.));
#559=DIRECTION('center_axis',(0.,0.,-1.));
#560=DIRECTION('ref_axis',(1.,0.,0.));
#561=DIRECTION('center_axis',(-1.,0.,0.));
#562=DIRECTION('ref_axis',(0.,-1.,0.));
#563=DIRECTION('',(0.,1.,0.));
#564=DIRECTION('',(0.,0.,1.));
#565=DIRECTION('',(0.,-1.,0.));
#566=DIRECTION('',(0.,0.,1.));
#567=DIRECTION('center_axis',(0.,1.,0.));
#568=DIRECTION('ref_axis',(-1.,0.,0.));
#569=DIRECTION('',(1.,0.,0.));
#570=DIRECTION('',(-1.,0.,0.));
#571=DIRECTION('',(0.,0.,1.));
#572=DIRECTION('center_axis',(1.,0.,0.));
#573=DIRECTION('ref_axis',(0.,1.,0.));
#574=DIRECTION('',(0.,-1.,0.));
#575=DIRECTION('',(0.,1.,0.));
#576=DIRECTION('',(0.,0.,1.));
#577=DIRECTION('center_axis',(0.,-1.,0.));
#578=DIRECTION('ref_axis',(1.,0.,0.));
#579=DIRECTION('',(-1.,0.,0.));
#580=DIRECTION('',(1.,0.,0.));
#581=DIRECTION('center_axis',(0.,0.,1.));
#582=DIRECTION('ref_axis',(1.,0.,0.));
#583=DIRECTION('center_axis',(0.,0.,1.));
#584=DIRECTION('ref_axis',(1.,0.,0.));
#585=CARTESIAN_POINT('',(0.,0.,0.));
#586=CARTESIAN_POINT('Origin',(-100.,50.,0.));
#587=CARTESIAN_POINT('',(-100.,0.,0.));
#588=CARTESIAN_POINT('',(-100.,50.,0.));
#589=CARTESIAN_POINT('',(-100.,0.,0.));
#590=CARTESIAN_POINT('',(-100.,0.,20.));
#591=CARTESIAN_POINT('',(-100.,0.,0.));
#592=CARTESIAN_POINT('',(-100.,50.,20.));
#593=CARTESIAN_POINT('',(-100.,0.,20.));
#594=CARTESIAN_POINT('',(-100.,50.,0.));
#595=CARTESIAN_POINT('Origin',(-50.,50.,0.));
#596=CARTESIAN_POINT('',(-50.,50.,0.));
#597=CARTESIAN_POINT('',(-100.,50.,0.));
#598=CARTESIAN_POINT('',(-50.,50.,20.));
#599=CARTESIAN_POINT('',(-100.,50.,20.));
#600=CARTESIAN_POINT('',(-50.,50.,0.));
#601=CARTESIAN_POINT('Origin',(-50.,0.,0.));
#602=CARTESIAN_POINT('',(-50.,0.,0.));
#603=CARTESIAN_POINT('',(-50.,50.,0.));
#604=CARTESIAN_POINT('',(-50.,0.,20.));
#605=CARTESIAN_POINT('',(-50.,50.,20.));
#606=CARTESIAN_POINT('',(-50.,0.,0.));
#607=CARTESIAN_POINT('Origin',(-100.,0.,0.));
#608=CARTESIAN_POINT('',(-50.,0.,0.));
#609=CARTESIAN_POINT('',(-50.,0.,20.));
#610=CARTESIAN_POINT('Origin',(-75.,25.,20.));
#611=CARTESIAN_POINT('Origin',(-75.,25.,0.));
#612=CARTESIAN_POINT('Origin',(-75.,25.,15.));
#613=CARTESIAN_POINT('',(-60.,10.,15.));
#614=CARTESIAN_POINT('',(-90.,10.,15.));
#615=CARTESIAN_POINT('',(-67.5,10.,15.));
#616=CARTESIAN_POINT('',(-90.,40.,15.));
#617=CARTESIAN_POINT('',(-90.,17.5,15.));
#618=CARTESIAN_POINT('',(-60.,40.,15.));
#619=CARTESIAN_POINT('',(-82.5,40.,15.));
#620=CARTESIAN_POINT('',(-60.,32.5,15.));
#621=CARTESIAN_POINT('Origin',(-60.,40.,20.));
#622=CARTESIAN_POINT('',(-60.,40.,10.));
#623=CARTESIAN_POINT('',(-60.,40.,20.));
#624=CARTESIAN_POINT('',(-60.,10.,10.));
#625=CARTESIAN_POINT('',(-60.,40.,10.));
#626=CARTESIAN_POINT('',(-60.,10.,20.));
#627=CARTESIAN_POINT('Origin',(-60.,10.,20.));
#628=CARTESIAN_POINT('',(-90.,10.,10.));
#629=CARTESIAN_POINT('',(-60.,10.,10.));
#630=CARTESIAN_POINT('',(-90.,10.,20.));
#631=CARTESIAN_POINT('Origin',(-90.,40.,20.));
#632=CARTESIAN_POINT('',(-90.,40.,10.));
#633=CARTESIAN_POINT('',(-90.,40.,20.));
#634=CARTESIAN_POINT('',(-90.,40.,10.));
#635=CARTESIAN_POINT('Origin',(-90.,10.,20.));
#636=CARTESIAN_POINT('',(-90.,10.,10.));
#637=CARTESIAN_POINT('Origin',(-75.,25.,10.));
#638=CARTESIAN_POINT('Origin',(0.,5.,-1.11022302462516E-15));
#639=CARTESIAN_POINT('',(-20.,10.,2.28847549044394E-16));
#640=CARTESIAN_POINT('Origin',(0.,10.,-2.22044604925031E-15));
#641=CARTESIAN_POINT('',(-20.,0.,2.44929359829471E-15));
#642=CARTESIAN_POINT('',(-20.,5.,1.33907057366955E-15));
#643=CARTESIAN_POINT('Origin',(0.,0.,0.));
#644=CARTESIAN_POINT('Origin',(0.,0.,0.));
#645=CARTESIAN_POINT('Origin',(0.,10.,-2.22044604925031E-15));
#646=CARTESIAN_POINT('Origin',(1.43545849284057,0.999999999999998,-1.51075620950753));
#647=CARTESIAN_POINT('',(10.,0.999999999999998,-10.));
#648=CARTESIAN_POINT('',(-7.12908301431886,0.999999999999998,-10.));
#649=CARTESIAN_POINT('',(5.71772924642028,0.999999999999998,-10.));
#650=CARTESIAN_POINT('',(-7.12908301431886,1.,6.97848758098495));
#651=CARTESIAN_POINT('',(-7.12908301431886,0.999999999999998,-5.75537810475376));
#652=CARTESIAN_POINT('',(10.,1.,6.97848758098495));
#653=CARTESIAN_POINT('',(-2.84681226073915,0.999999999999998,6.97848758098495));
#654=CARTESIAN_POINT('',(10.,0.999999999999998,2.73386568573871));
#655=CARTESIAN_POINT('Origin',(10.,1.54953551789404E-15,6.97848758098495));
#656=CARTESIAN_POINT('',(10.,9.,6.97848758098495));
#657=CARTESIAN_POINT('',(10.,1.54953551789404E-15,6.97848758098495));
#658=CARTESIAN_POINT('',(10.,9.,-10.));
#659=CARTESIAN_POINT('',(10.,9.,6.97848758098495));
#660=CARTESIAN_POINT('',(10.,-2.22044604925031E-15,-10.));
#661=CARTESIAN_POINT('Origin',(10.,-2.22044604925031E-15,-10.));
#662=CARTESIAN_POINT('',(-7.12908301431886,9.,-10.));
#663=CARTESIAN_POINT('',(10.,9.,-10.));
#664=CARTESIAN_POINT('',(-7.12908301431886,-2.22044604925031E-15,-10.));
#665=CARTESIAN_POINT('Origin',(-7.12908301431886,1.54953551789404E-15,6.97848758098495));
#666=CARTESIAN_POINT('',(-7.12908301431886,9.,6.97848758098495));
#667=CARTESIAN_POINT('',(-7.12908301431886,1.54953551789404E-15,6.97848758098495));
#668=CARTESIAN_POINT('',(-7.12908301431886,9.,6.97848758098495));
#669=CARTESIAN_POINT('Origin',(-7.12908301431886,-2.22044604925031E-15,
-10.));
#670=CARTESIAN_POINT('',(-7.12908301431886,9.,-10.));
#671=CARTESIAN_POINT('Origin',(1.43545849284057,9.,-1.51075620950753));
#672=CARTESIAN_POINT('Origin',(45.2509139372935,60.5172306202964,0.));
#673=CARTESIAN_POINT('',(25.4964139372935,60.5172306202964,6.12323399573677E-16));
#674=CARTESIAN_POINT('Origin',(20.4964139372935,60.5172306202964,0.));
#675=CARTESIAN_POINT('Origin',(45.2509139372935,60.5172306202964,-6.12323399573677E-16));
#676=CARTESIAN_POINT('Origin',(-40.,50.,0.));
#677=CARTESIAN_POINT('',(-40.,30.,0.));
#678=CARTESIAN_POINT('',(-40.,50.,0.));
#679=CARTESIAN_POINT('',(-40.,30.,0.));
#680=CARTESIAN_POINT('',(-40.,30.,10.));
#681=CARTESIAN_POINT('',(-40.,30.,0.));
#682=CARTESIAN_POINT('',(-40.,50.,10.));
#683=CARTESIAN_POINT('',(-40.,30.,10.));
#684=CARTESIAN_POINT('',(-40.,50.,0.));
#685=CARTESIAN_POINT('Origin',(-20.,50.,0.));
#686=CARTESIAN_POINT('',(-20.,50.,0.));
#687=CARTESIAN_POINT('',(-40.,50.,0.));
#688=CARTESIAN_POINT('',(-20.,50.,10.));
#689=CARTESIAN_POINT('',(-40.,50.,10.));
#690=CARTESIAN_POINT('',(-20.,50.,0.));
#691=CARTESIAN_POINT('Origin',(-20.,30.,0.));
#692=CARTESIAN_POINT('',(-20.,30.,0.));
#693=CARTESIAN_POINT('',(-20.,50.,0.));
#694=CARTESIAN_POINT('',(-20.,30.,10.));
#695=CARTESIAN_POINT('',(-20.,50.,10.));
#696=CARTESIAN_POINT('',(-20.,30.,0.));
#697=CARTESIAN_POINT('Origin',(-40.,30.,0.));
#698=CARTESIAN_POINT('',(-20.,30.,0.));
#699=CARTESIAN_POINT('',(-20.,30.,10.));
#700=CARTESIAN_POINT('Origin',(-30.,40.,10.));
#701=CARTESIAN_POINT('Origin',(-30.,40.,0.));
#702=UNCERTAINTY_MEASURE_WITH_UNIT(LENGTH_MEASURE(0.01),#706,
'DISTANCE_ACCURACY_VALUE',
'Maximum model space distance between geometric entities at asserted c
onnectivities');
#703=UNCERTAINTY_MEASURE_WITH_UNIT(LENGTH_MEASURE(0.01),#706,
'DISTANCE_ACCURACY_VALUE',
'Maximum model space distance between geometric entities at asserted c
onnectivities');
#704=(
GEOMETRIC_REPRESENTATION_CONTEXT(3)
GLOBAL_UNCERTAINTY_ASSIGNED_CONTEXT((#702))
GLOBAL_UNIT_ASSIGNED_CONTEXT((#706,#707,#708))
REPRESENTATION_CONTEXT('','3D')
);
#705=(
GEOMETRIC_REPRESENTATION_CONTEXT(3)
GLOBAL_UNCERTAINTY_ASSIGNED_CONTEXT((#703))
GLOBAL_UNIT_ASSIGNED_CONTEXT((#706,#707,#708))
REPRESENTATION_CONTEXT('','3D')
);
#706=(
LENGTH_UNIT()
NAMED_UNIT(*)
SI_UNIT(.MILLI.,.METRE.)
);
#707=(
NAMED_UNIT(*)
PLANE_ANGLE_UNIT()
SI_UNIT($,.RADIAN.)
);
#708=(
NAMED_UNIT(*)
SI_UNIT($,.STERADIAN.)
SOLID_ANGLE_UNIT()
);
#709=SHAPE_DEFINITION_REPRESENTATION(#710,#711);
#710=PRODUCT_DEFINITION_SHAPE('',$,#713);
#711=SHAPE_REPRESENTATION('',(#437),#704);
#712=PRODUCT_DEFINITION_CONTEXT('part definition',#717,'design');
#713=PRODUCT_DEFINITION('ManyBodies','ManyBodies',#714,#712);
#714=PRODUCT_DEFINITION_FORMATION('',$,#719);
#715=PRODUCT_RELATED_PRODUCT_CATEGORY('ManyBodies','ManyBodies',(#719));
#716=APPLICATION_PROTOCOL_DEFINITION('international standard',
'automotive_design',2009,#717);
#717=APPLICATION_CONTEXT(
'Core Data for Automotive Mechanical Design Process');
#718=PRODUCT_CONTEXT('part definition',#717,'mechanical');
#719=PRODUCT('ManyBodies','ManyBodies',$,(#718));
#720=PRESENTATION_STYLE_ASSIGNMENT((#721));
#721=SURFACE_STYLE_USAGE(.BOTH.,#724);
#722=SURFACE_STYLE_RENDERING_WITH_PROPERTIES($,#728,(#723));
#723=SURFACE_STYLE_TRANSPARENT(0.);
#724=SURFACE_SIDE_STYLE('',(#725,#722));
#725=SURFACE_STYLE_FILL_AREA(#726);
#726=FILL_AREA_STYLE('',(#727));
#727=FILL_AREA_STYLE_COLOUR('',#728);
#728=COLOUR_RGB('',0.627450980392157,0.627450980392157,0.627450980392157);
ENDSEC;
END-ISO-10303-21;
