ISO-10303-21;
HEADER;
/* Generated by software containing ST-Developer
 * from STEP Tools, Inc. (www.steptools.com) 
 */

FILE_DESCRIPTION(
/* description */ (''),
/* implementation_level */ '2;1');

FILE_NAME(
/* name */ 'E:/projects/lambouj/cadmesh/data/Block_hole.step',
/* time_stamp */ '2020-07-13T14:04:29+01:00',
/* author */ (''),
/* organization */ (''),
/* preprocessor_version */ 'ST-DEVELOPER v18.1',
/* originating_system */ 'Autodesk Translation Framework v9.3.0.1241',
/* authorisation */ '');

FILE_SCHEMA (('AUTOMOTIVE_DESIGN { 1 0 10303 214 3 1 1 }'));
ENDSEC;

DATA;
#10=MECHANICAL_DESIGN_GEOMETRIC_PRESENTATION_REPRESENTATION('',(#13),#228);
#11=SHAPE_REPRESENTATION_RELATIONSHIP('SRR','None',#235,#12);
#12=ADVANCED_BREP_SHAPE_REPRESENTATION('',(#14),#227);
#13=STYLED_ITEM('',(#244),#14);
#14=MANIFOLD_SOLID_BREP('Body1',#132);
#15=FACE_BOUND('',#38,.T.);
#16=PLANE('',#149);
#17=PLANE('',#150);
#18=PLANE('',#151);
#19=PLANE('',#152);
#20=PLANE('',#153);
#21=PLANE('',#154);
#22=PLANE('',#155);
#23=FACE_OUTER_BOUND('',#31,.T.);
#24=FACE_OUTER_BOUND('',#32,.T.);
#25=FACE_OUTER_BOUND('',#33,.T.);
#26=FACE_OUTER_BOUND('',#34,.T.);
#27=FACE_OUTER_BOUND('',#35,.T.);
#28=FACE_OUTER_BOUND('',#36,.T.);
#29=FACE_OUTER_BOUND('',#37,.T.);
#30=FACE_OUTER_BOUND('',#39,.T.);
#31=EDGE_LOOP('',(#93,#94,#95,#96));
#32=EDGE_LOOP('',(#97));
#33=EDGE_LOOP('',(#98,#99,#100,#101));
#34=EDGE_LOOP('',(#102,#103,#104,#105));
#35=EDGE_LOOP('',(#106,#107,#108,#109));
#36=EDGE_LOOP('',(#110,#111,#112,#113));
#37=EDGE_LOOP('',(#114,#115,#116,#117));
#38=EDGE_LOOP('',(#118));
#39=EDGE_LOOP('',(#119,#120,#121,#122));
#40=LINE('',#196,#53);
#41=LINE('',#202,#54);
#42=LINE('',#204,#55);
#43=LINE('',#206,#56);
#44=LINE('',#207,#57);
#45=LINE('',#210,#58);
#46=LINE('',#212,#59);
#47=LINE('',#213,#60);
#48=LINE('',#216,#61);
#49=LINE('',#218,#62);
#50=LINE('',#219,#63);
#51=LINE('',#221,#64);
#52=LINE('',#222,#65);
#53=VECTOR('',#162,8.10699021551551);
#54=VECTOR('',#169,10.);
#55=VECTOR('',#170,10.);
#56=VECTOR('',#171,10.);
#57=VECTOR('',#172,10.);
#58=VECTOR('',#175,10.);
#59=VECTOR('',#176,10.);
#60=VECTOR('',#177,10.);
#61=VECTOR('',#180,10.);
#62=VECTOR('',#181,10.);
#63=VECTOR('',#182,10.);
#64=VECTOR('',#185,10.);
#65=VECTOR('',#186,10.);
#66=CIRCLE('',#147,8.10699021551551);
#67=CIRCLE('',#148,8.10699021551551);
#68=VERTEX_POINT('',#193);
#69=VERTEX_POINT('',#195);
#70=VERTEX_POINT('',#200);
#71=VERTEX_POINT('',#201);
#72=VERTEX_POINT('',#203);
#73=VERTEX_POINT('',#205);
#74=VERTEX_POINT('',#209);
#75=VERTEX_POINT('',#211);
#76=VERTEX_POINT('',#215);
#77=VERTEX_POINT('',#217);
#78=EDGE_CURVE('',#68,#68,#66,.T.);
#79=EDGE_CURVE('',#68,#69,#40,.T.);
#80=EDGE_CURVE('',#69,#69,#67,.T.);
#81=EDGE_CURVE('',#70,#71,#41,.T.);
#82=EDGE_CURVE('',#70,#72,#42,.T.);
#83=EDGE_CURVE('',#73,#72,#43,.T.);
#84=EDGE_CURVE('',#71,#73,#44,.T.);
#85=EDGE_CURVE('',#71,#74,#45,.T.);
#86=EDGE_CURVE('',#75,#73,#46,.T.);
#87=EDGE_CURVE('',#74,#75,#47,.T.);
#88=EDGE_CURVE('',#74,#76,#48,.T.);
#89=EDGE_CURVE('',#77,#75,#49,.T.);
#90=EDGE_CURVE('',#76,#77,#50,.T.);
#91=EDGE_CURVE('',#76,#70,#51,.T.);
#92=EDGE_CURVE('',#72,#77,#52,.T.);
#93=ORIENTED_EDGE('',*,*,#78,.F.);
#94=ORIENTED_EDGE('',*,*,#79,.T.);
#95=ORIENTED_EDGE('',*,*,#80,.T.);
#96=ORIENTED_EDGE('',*,*,#79,.F.);
#97=ORIENTED_EDGE('',*,*,#80,.F.);
#98=ORIENTED_EDGE('',*,*,#81,.F.);
#99=ORIENTED_EDGE('',*,*,#82,.T.);
#100=ORIENTED_EDGE('',*,*,#83,.F.);
#101=ORIENTED_EDGE('',*,*,#84,.F.);
#102=ORIENTED_EDGE('',*,*,#85,.F.);
#103=ORIENTED_EDGE('',*,*,#84,.T.);
#104=ORIENTED_EDGE('',*,*,#86,.F.);
#105=ORIENTED_EDGE('',*,*,#87,.F.);
#106=ORIENTED_EDGE('',*,*,#88,.F.);
#107=ORIENTED_EDGE('',*,*,#87,.T.);
#108=ORIENTED_EDGE('',*,*,#89,.F.);
#109=ORIENTED_EDGE('',*,*,#90,.F.);
#110=ORIENTED_EDGE('',*,*,#91,.F.);
#111=ORIENTED_EDGE('',*,*,#90,.T.);
#112=ORIENTED_EDGE('',*,*,#92,.F.);
#113=ORIENTED_EDGE('',*,*,#82,.F.);
#114=ORIENTED_EDGE('',*,*,#92,.T.);
#115=ORIENTED_EDGE('',*,*,#89,.T.);
#116=ORIENTED_EDGE('',*,*,#86,.T.);
#117=ORIENTED_EDGE('',*,*,#83,.T.);
#118=ORIENTED_EDGE('',*,*,#78,.T.);
#119=ORIENTED_EDGE('',*,*,#91,.T.);
#120=ORIENTED_EDGE('',*,*,#81,.T.);
#121=ORIENTED_EDGE('',*,*,#85,.T.);
#122=ORIENTED_EDGE('',*,*,#88,.T.);
#123=CYLINDRICAL_SURFACE('',#146,8.10699021551551);
#124=ADVANCED_FACE('Bill',(#23),#123,.F.);
#125=ADVANCED_FACE('Bob',(#24),#16,.T.);
#126=ADVANCED_FACE('Sally',(#25),#17,.T.);
#127=ADVANCED_FACE('Fred',(#26),#18,.T.);
#128=ADVANCED_FACE('Horrice',(#27),#19,.T.);
#129=ADVANCED_FACE('Ann',(#28),#20,.T.);
#130=ADVANCED_FACE('Genny',(#29,#15),#21,.T.);
#131=ADVANCED_FACE('Paul',(#30),#22,.F.);
#132=CLOSED_SHELL('',(#124,#125,#126,#127,#128,#129,#130,#131));
#133=DERIVED_UNIT_ELEMENT(#135,1.);
#134=DERIVED_UNIT_ELEMENT(#230,3.);
#135=(
MASS_UNIT()
NAMED_UNIT(*)
SI_UNIT(.KILO.,.GRAM.)
);
#136=DERIVED_UNIT((#133,#134));
#137=MEASURE_REPRESENTATION_ITEM('density measure',
POSITIVE_RATIO_MEASURE(7850.),#136);
#138=PROPERTY_DEFINITION_REPRESENTATION(#143,#140);
#139=PROPERTY_DEFINITION_REPRESENTATION(#144,#141);
#140=REPRESENTATION('material name',(#142),#227);
#141=REPRESENTATION('density',(#137),#227);
#142=DESCRIPTIVE_REPRESENTATION_ITEM('Steel','Steel');
#143=PROPERTY_DEFINITION('material property','material name',#237);
#144=PROPERTY_DEFINITION('material property','density of part',#237);
#145=AXIS2_PLACEMENT_3D('placement',#191,#156,#157);
#146=AXIS2_PLACEMENT_3D('',#192,#158,#159);
#147=AXIS2_PLACEMENT_3D('',#194,#160,#161);
#148=AXIS2_PLACEMENT_3D('',#197,#163,#164);
#149=AXIS2_PLACEMENT_3D('',#198,#165,#166);
#150=AXIS2_PLACEMENT_3D('',#199,#167,#168);
#151=AXIS2_PLACEMENT_3D('',#208,#173,#174);
#152=AXIS2_PLACEMENT_3D('',#214,#178,#179);
#153=AXIS2_PLACEMENT_3D('',#220,#183,#184);
#154=AXIS2_PLACEMENT_3D('',#223,#187,#188);
#155=AXIS2_PLACEMENT_3D('',#224,#189,#190);
#156=DIRECTION('axis',(0.,0.,1.));
#157=DIRECTION('refdir',(1.,0.,0.));
#158=DIRECTION('center_axis',(0.,0.,-1.));
#159=DIRECTION('ref_axis',(-1.,0.,0.));
#160=DIRECTION('center_axis',(0.,0.,-1.));
#161=DIRECTION('ref_axis',(-1.,0.,0.));
#162=DIRECTION('',(0.,0.,-1.));
#163=DIRECTION('center_axis',(0.,0.,-1.));
#164=DIRECTION('ref_axis',(-1.,0.,0.));
#165=DIRECTION('center_axis',(0.,0.,1.));
#166=DIRECTION('ref_axis',(-1.,0.,0.));
#167=DIRECTION('center_axis',(-1.,0.,0.));
#168=DIRECTION('ref_axis',(0.,-1.,0.));
#169=DIRECTION('',(0.,1.,0.));
#170=DIRECTION('',(0.,0.,1.));
#171=DIRECTION('',(0.,-1.,0.));
#172=DIRECTION('',(0.,0.,1.));
#173=DIRECTION('center_axis',(0.,1.,0.));
#174=DIRECTION('ref_axis',(-1.,0.,0.));
#175=DIRECTION('',(1.,0.,0.));
#176=DIRECTION('',(-1.,0.,0.));
#177=DIRECTION('',(0.,0.,1.));
#178=DIRECTION('center_axis',(1.,0.,0.));
#179=DIRECTION('ref_axis',(0.,1.,0.));
#180=DIRECTION('',(0.,-1.,0.));
#181=DIRECTION('',(0.,1.,0.));
#182=DIRECTION('',(0.,0.,1.));
#183=DIRECTION('center_axis',(0.,-1.,0.));
#184=DIRECTION('ref_axis',(1.,0.,0.));
#185=DIRECTION('',(-1.,0.,0.));
#186=DIRECTION('',(1.,0.,0.));
#187=DIRECTION('center_axis',(0.,0.,1.));
#188=DIRECTION('ref_axis',(1.,0.,0.));
#189=DIRECTION('center_axis',(0.,0.,1.));
#190=DIRECTION('ref_axis',(1.,0.,0.));
#191=CARTESIAN_POINT('',(0.,0.,0.));
#192=CARTESIAN_POINT('Origin',(25.,26.3814802635802,30.));
#193=CARTESIAN_POINT('',(33.1069902155155,26.3814802635802,30.));
#194=CARTESIAN_POINT('Origin',(25.,26.3814802635802,30.));
#195=CARTESIAN_POINT('',(33.1069902155155,26.3814802635802,20.));
#196=CARTESIAN_POINT('',(33.1069902155155,26.3814802635802,30.));
#197=CARTESIAN_POINT('Origin',(25.,26.3814802635802,20.));
#198=CARTESIAN_POINT('Origin',(25.,26.3814802635802,20.));
#199=CARTESIAN_POINT('Origin',(0.,50.,0.));
#200=CARTESIAN_POINT('',(0.,0.,0.));
#201=CARTESIAN_POINT('',(0.,50.,0.));
#202=CARTESIAN_POINT('',(0.,0.,0.));
#203=CARTESIAN_POINT('',(0.,0.,30.));
#204=CARTESIAN_POINT('',(0.,0.,0.));
#205=CARTESIAN_POINT('',(0.,50.,30.));
#206=CARTESIAN_POINT('',(0.,0.,30.));
#207=CARTESIAN_POINT('',(0.,50.,0.));
#208=CARTESIAN_POINT('Origin',(50.,50.,0.));
#209=CARTESIAN_POINT('',(50.,50.,0.));
#210=CARTESIAN_POINT('',(0.,50.,0.));
#211=CARTESIAN_POINT('',(50.,50.,30.));
#212=CARTESIAN_POINT('',(0.,50.,30.));
#213=CARTESIAN_POINT('',(50.,50.,0.));
#214=CARTESIAN_POINT('Origin',(50.,0.,0.));
#215=CARTESIAN_POINT('',(50.,0.,0.));
#216=CARTESIAN_POINT('',(50.,50.,0.));
#217=CARTESIAN_POINT('',(50.,0.,30.));
#218=CARTESIAN_POINT('',(50.,50.,30.));
#219=CARTESIAN_POINT('',(50.,0.,0.));
#220=CARTESIAN_POINT('Origin',(0.,0.,0.));
#221=CARTESIAN_POINT('',(50.,0.,0.));
#222=CARTESIAN_POINT('',(50.,0.,30.));
#223=CARTESIAN_POINT('Origin',(25.,25.,30.));
#224=CARTESIAN_POINT('Origin',(25.,25.,0.));
#225=UNCERTAINTY_MEASURE_WITH_UNIT(LENGTH_MEASURE(0.01),#229,
'DISTANCE_ACCURACY_VALUE',
'Maximum model space distance between geometric entities at asserted c
onnectivities');
#226=UNCERTAINTY_MEASURE_WITH_UNIT(LENGTH_MEASURE(0.01),#229,
'DISTANCE_ACCURACY_VALUE',
'Maximum model space distance between geometric entities at asserted c
onnectivities');
#227=(
GEOMETRIC_REPRESENTATION_CONTEXT(3)
GLOBAL_UNCERTAINTY_ASSIGNED_CONTEXT((#225))
GLOBAL_UNIT_ASSIGNED_CONTEXT((#229,#231,#232))
REPRESENTATION_CONTEXT('','3D')
);
#228=(
GEOMETRIC_REPRESENTATION_CONTEXT(3)
GLOBAL_UNCERTAINTY_ASSIGNED_CONTEXT((#226))
GLOBAL_UNIT_ASSIGNED_CONTEXT((#229,#231,#232))
REPRESENTATION_CONTEXT('','3D')
);
#229=(
LENGTH_UNIT()
NAMED_UNIT(*)
SI_UNIT(.MILLI.,.METRE.)
);
#230=(
LENGTH_UNIT()
NAMED_UNIT(*)
SI_UNIT($,.METRE.)
);
#231=(
NAMED_UNIT(*)
PLANE_ANGLE_UNIT()
SI_UNIT($,.RADIAN.)
);
#232=(
NAMED_UNIT(*)
SI_UNIT($,.STERADIAN.)
SOLID_ANGLE_UNIT()
);
#233=SHAPE_DEFINITION_REPRESENTATION(#234,#235);
#234=PRODUCT_DEFINITION_SHAPE('',$,#237);
#235=SHAPE_REPRESENTATION('',(#145),#227);
#236=PRODUCT_DEFINITION_CONTEXT('part definition',#241,'design');
#237=PRODUCT_DEFINITION('(Unsaved)','(Unsaved)',#238,#236);
#238=PRODUCT_DEFINITION_FORMATION('',$,#243);
#239=PRODUCT_RELATED_PRODUCT_CATEGORY('(Unsaved)','(Unsaved)',(#243));
#240=APPLICATION_PROTOCOL_DEFINITION('international standard',
'automotive_design',2009,#241);
#241=APPLICATION_CONTEXT(
'Core Data for Automotive Mechanical Design Process');
#242=PRODUCT_CONTEXT('part definition',#241,'mechanical');
#243=PRODUCT('(Unsaved)','(Unsaved)',$,(#242));
#244=PRESENTATION_STYLE_ASSIGNMENT((#245));
#245=SURFACE_STYLE_USAGE(.BOTH.,#246);
#246=SURFACE_SIDE_STYLE('',(#247));
#247=SURFACE_STYLE_FILL_AREA(#248);
#248=FILL_AREA_STYLE('Steel - Satin',(#249));
#249=FILL_AREA_STYLE_COLOUR('Steel - Satin',#250);
#250=COLOUR_RGB('Steel - Satin',0.627450980392157,0.627450980392157,0.627450980392157);
ENDSEC;
END-ISO-10303-21;
