ISO-10303-21;
HEADER;
/* Generated by software containing ST-Developer
 * from STEP Tools, Inc. (www.steptools.com) 
 */

FILE_DESCRIPTION(
/* description */ (''),
/* implementation_level */ '2;1');

FILE_NAME(
/* name */ 'E:\\projects\\lambouj\\cadmesh\\data\\AVoid.stp',
/* time_stamp */ '2020-12-08T13:21:50+00:00',
/* author */ (''),
/* organization */ (''),
/* preprocessor_version */ 'ST-DEVELOPER v18.1',
/* originating_system */ 'Autodesk Translation Framework',
/* authorisation */ '');

FILE_SCHEMA (('AUTOMOTIVE_DESIGN { 1 0 10303 214 3 1 1 }'));
ENDSEC;

DATA;
#10=MECHANICAL_DESIGN_GEOMETRIC_PRESENTATION_REPRESENTATION('',(#13),#321);
#11=SHAPE_REPRESENTATION_RELATIONSHIP('SRR','None',#327,#12);
#12=ADVANCED_BREP_SHAPE_REPRESENTATION('',(#201),#320);
#13=STYLED_ITEM('',(#336),#201);
#14=ORIENTED_CLOSED_SHELL('',*,#200,.F.);
#15=FACE_OUTER_BOUND('',#27,.T.);
#16=FACE_OUTER_BOUND('',#28,.T.);
#17=FACE_OUTER_BOUND('',#29,.T.);
#18=FACE_OUTER_BOUND('',#30,.T.);
#19=FACE_OUTER_BOUND('',#31,.T.);
#20=FACE_OUTER_BOUND('',#32,.T.);
#21=FACE_OUTER_BOUND('',#33,.T.);
#22=FACE_OUTER_BOUND('',#34,.T.);
#23=FACE_OUTER_BOUND('',#35,.T.);
#24=FACE_OUTER_BOUND('',#36,.T.);
#25=FACE_OUTER_BOUND('',#37,.T.);
#26=FACE_OUTER_BOUND('',#38,.T.);
#27=EDGE_LOOP('',(#127,#128,#129,#130));
#28=EDGE_LOOP('',(#131,#132,#133,#134));
#29=EDGE_LOOP('',(#135,#136,#137,#138));
#30=EDGE_LOOP('',(#139,#140,#141,#142));
#31=EDGE_LOOP('',(#143,#144,#145,#146));
#32=EDGE_LOOP('',(#147,#148,#149,#150));
#33=EDGE_LOOP('',(#151,#152,#153,#154));
#34=EDGE_LOOP('',(#155,#156,#157,#158));
#35=EDGE_LOOP('',(#159,#160,#161,#162));
#36=EDGE_LOOP('',(#163,#164,#165,#166));
#37=EDGE_LOOP('',(#167,#168,#169,#170));
#38=EDGE_LOOP('',(#171,#172,#173,#174));
#39=LINE('',#269,#63);
#40=LINE('',#271,#64);
#41=LINE('',#273,#65);
#42=LINE('',#274,#66);
#43=LINE('',#277,#67);
#44=LINE('',#279,#68);
#45=LINE('',#280,#69);
#46=LINE('',#283,#70);
#47=LINE('',#285,#71);
#48=LINE('',#286,#72);
#49=LINE('',#288,#73);
#50=LINE('',#289,#74);
#51=LINE('',#295,#75);
#52=LINE('',#297,#76);
#53=LINE('',#299,#77);
#54=LINE('',#300,#78);
#55=LINE('',#303,#79);
#56=LINE('',#305,#80);
#57=LINE('',#306,#81);
#58=LINE('',#309,#82);
#59=LINE('',#310,#83);
#60=LINE('',#313,#84);
#61=LINE('',#314,#85);
#62=LINE('',#316,#86);
#63=VECTOR('',#219,10.);
#64=VECTOR('',#220,10.);
#65=VECTOR('',#221,10.);
#66=VECTOR('',#222,10.);
#67=VECTOR('',#225,10.);
#68=VECTOR('',#226,10.);
#69=VECTOR('',#227,10.);
#70=VECTOR('',#230,10.);
#71=VECTOR('',#231,10.);
#72=VECTOR('',#232,10.);
#73=VECTOR('',#235,10.);
#74=VECTOR('',#236,10.);
#75=VECTOR('',#243,10.);
#76=VECTOR('',#244,10.);
#77=VECTOR('',#245,10.);
#78=VECTOR('',#246,10.);
#79=VECTOR('',#249,10.);
#80=VECTOR('',#250,10.);
#81=VECTOR('',#251,10.);
#82=VECTOR('',#254,10.);
#83=VECTOR('',#255,10.);
#84=VECTOR('',#258,10.);
#85=VECTOR('',#259,10.);
#86=VECTOR('',#262,10.);
#87=VERTEX_POINT('',#267);
#88=VERTEX_POINT('',#268);
#89=VERTEX_POINT('',#270);
#90=VERTEX_POINT('',#272);
#91=VERTEX_POINT('',#276);
#92=VERTEX_POINT('',#278);
#93=VERTEX_POINT('',#282);
#94=VERTEX_POINT('',#284);
#95=VERTEX_POINT('',#293);
#96=VERTEX_POINT('',#294);
#97=VERTEX_POINT('',#296);
#98=VERTEX_POINT('',#298);
#99=VERTEX_POINT('',#302);
#100=VERTEX_POINT('',#304);
#101=VERTEX_POINT('',#308);
#102=VERTEX_POINT('',#312);
#103=EDGE_CURVE('',#87,#88,#39,.T.);
#104=EDGE_CURVE('',#87,#89,#40,.T.);
#105=EDGE_CURVE('',#90,#89,#41,.T.);
#106=EDGE_CURVE('',#88,#90,#42,.T.);
#107=EDGE_CURVE('',#88,#91,#43,.T.);
#108=EDGE_CURVE('',#92,#90,#44,.T.);
#109=EDGE_CURVE('',#91,#92,#45,.T.);
#110=EDGE_CURVE('',#91,#93,#46,.T.);
#111=EDGE_CURVE('',#94,#92,#47,.T.);
#112=EDGE_CURVE('',#93,#94,#48,.T.);
#113=EDGE_CURVE('',#93,#87,#49,.T.);
#114=EDGE_CURVE('',#89,#94,#50,.T.);
#115=EDGE_CURVE('',#95,#96,#51,.T.);
#116=EDGE_CURVE('',#96,#97,#52,.T.);
#117=EDGE_CURVE('',#97,#98,#53,.T.);
#118=EDGE_CURVE('',#98,#95,#54,.T.);
#119=EDGE_CURVE('',#98,#99,#55,.T.);
#120=EDGE_CURVE('',#99,#100,#56,.T.);
#121=EDGE_CURVE('',#95,#100,#57,.T.);
#122=EDGE_CURVE('',#100,#101,#58,.T.);
#123=EDGE_CURVE('',#96,#101,#59,.T.);
#124=EDGE_CURVE('',#97,#102,#60,.T.);
#125=EDGE_CURVE('',#102,#99,#61,.T.);
#126=EDGE_CURVE('',#101,#102,#62,.T.);
#127=ORIENTED_EDGE('',*,*,#103,.F.);
#128=ORIENTED_EDGE('',*,*,#104,.T.);
#129=ORIENTED_EDGE('',*,*,#105,.F.);
#130=ORIENTED_EDGE('',*,*,#106,.F.);
#131=ORIENTED_EDGE('',*,*,#107,.F.);
#132=ORIENTED_EDGE('',*,*,#106,.T.);
#133=ORIENTED_EDGE('',*,*,#108,.F.);
#134=ORIENTED_EDGE('',*,*,#109,.F.);
#135=ORIENTED_EDGE('',*,*,#110,.F.);
#136=ORIENTED_EDGE('',*,*,#109,.T.);
#137=ORIENTED_EDGE('',*,*,#111,.F.);
#138=ORIENTED_EDGE('',*,*,#112,.F.);
#139=ORIENTED_EDGE('',*,*,#113,.F.);
#140=ORIENTED_EDGE('',*,*,#112,.T.);
#141=ORIENTED_EDGE('',*,*,#114,.F.);
#142=ORIENTED_EDGE('',*,*,#104,.F.);
#143=ORIENTED_EDGE('',*,*,#114,.T.);
#144=ORIENTED_EDGE('',*,*,#111,.T.);
#145=ORIENTED_EDGE('',*,*,#108,.T.);
#146=ORIENTED_EDGE('',*,*,#105,.T.);
#147=ORIENTED_EDGE('',*,*,#113,.T.);
#148=ORIENTED_EDGE('',*,*,#103,.T.);
#149=ORIENTED_EDGE('',*,*,#107,.T.);
#150=ORIENTED_EDGE('',*,*,#110,.T.);
#151=ORIENTED_EDGE('',*,*,#115,.T.);
#152=ORIENTED_EDGE('',*,*,#116,.T.);
#153=ORIENTED_EDGE('',*,*,#117,.T.);
#154=ORIENTED_EDGE('',*,*,#118,.T.);
#155=ORIENTED_EDGE('',*,*,#118,.F.);
#156=ORIENTED_EDGE('',*,*,#119,.T.);
#157=ORIENTED_EDGE('',*,*,#120,.T.);
#158=ORIENTED_EDGE('',*,*,#121,.F.);
#159=ORIENTED_EDGE('',*,*,#115,.F.);
#160=ORIENTED_EDGE('',*,*,#121,.T.);
#161=ORIENTED_EDGE('',*,*,#122,.T.);
#162=ORIENTED_EDGE('',*,*,#123,.F.);
#163=ORIENTED_EDGE('',*,*,#117,.F.);
#164=ORIENTED_EDGE('',*,*,#124,.T.);
#165=ORIENTED_EDGE('',*,*,#125,.T.);
#166=ORIENTED_EDGE('',*,*,#119,.F.);
#167=ORIENTED_EDGE('',*,*,#116,.F.);
#168=ORIENTED_EDGE('',*,*,#123,.T.);
#169=ORIENTED_EDGE('',*,*,#126,.T.);
#170=ORIENTED_EDGE('',*,*,#124,.F.);
#171=ORIENTED_EDGE('',*,*,#122,.F.);
#172=ORIENTED_EDGE('',*,*,#120,.F.);
#173=ORIENTED_EDGE('',*,*,#125,.F.);
#174=ORIENTED_EDGE('',*,*,#126,.F.);
#175=PLANE('',#203);
#176=PLANE('',#204);
#177=PLANE('',#205);
#178=PLANE('',#206);
#179=PLANE('',#207);
#180=PLANE('',#208);
#181=PLANE('',#209);
#182=PLANE('',#210);
#183=PLANE('',#211);
#184=PLANE('',#212);
#185=PLANE('',#213);
#186=PLANE('',#214);
#187=ADVANCED_FACE('',(#15),#175,.T.);
#188=ADVANCED_FACE('',(#16),#176,.T.);
#189=ADVANCED_FACE('',(#17),#177,.T.);
#190=ADVANCED_FACE('',(#18),#178,.T.);
#191=ADVANCED_FACE('',(#19),#179,.T.);
#192=ADVANCED_FACE('',(#20),#180,.F.);
#193=ADVANCED_FACE('',(#21),#181,.T.);
#194=ADVANCED_FACE('',(#22),#182,.F.);
#195=ADVANCED_FACE('',(#23),#183,.F.);
#196=ADVANCED_FACE('',(#24),#184,.F.);
#197=ADVANCED_FACE('',(#25),#185,.F.);
#198=ADVANCED_FACE('',(#26),#186,.F.);
#199=CLOSED_SHELL('',(#187,#188,#189,#190,#191,#192));
#200=CLOSED_SHELL('',(#193,#194,#195,#196,#197,#198));
#201=BREP_WITH_VOIDS('',#199,(#14));
#202=AXIS2_PLACEMENT_3D('placement',#265,#215,#216);
#203=AXIS2_PLACEMENT_3D('',#266,#217,#218);
#204=AXIS2_PLACEMENT_3D('',#275,#223,#224);
#205=AXIS2_PLACEMENT_3D('',#281,#228,#229);
#206=AXIS2_PLACEMENT_3D('',#287,#233,#234);
#207=AXIS2_PLACEMENT_3D('',#290,#237,#238);
#208=AXIS2_PLACEMENT_3D('',#291,#239,#240);
#209=AXIS2_PLACEMENT_3D('',#292,#241,#242);
#210=AXIS2_PLACEMENT_3D('',#301,#247,#248);
#211=AXIS2_PLACEMENT_3D('',#307,#252,#253);
#212=AXIS2_PLACEMENT_3D('',#311,#256,#257);
#213=AXIS2_PLACEMENT_3D('',#315,#260,#261);
#214=AXIS2_PLACEMENT_3D('',#317,#263,#264);
#215=DIRECTION('axis',(0.,0.,1.));
#216=DIRECTION('refdir',(1.,0.,0.));
#217=DIRECTION('center_axis',(-1.,0.,0.));
#218=DIRECTION('ref_axis',(0.,-1.,0.));
#219=DIRECTION('',(0.,1.,0.));
#220=DIRECTION('',(0.,0.,1.));
#221=DIRECTION('',(0.,-1.,0.));
#222=DIRECTION('',(0.,0.,1.));
#223=DIRECTION('center_axis',(0.,1.,0.));
#224=DIRECTION('ref_axis',(-1.,0.,0.));
#225=DIRECTION('',(1.,0.,0.));
#226=DIRECTION('',(-1.,0.,0.));
#227=DIRECTION('',(0.,0.,1.));
#228=DIRECTION('center_axis',(1.,0.,0.));
#229=DIRECTION('ref_axis',(0.,1.,0.));
#230=DIRECTION('',(0.,-1.,0.));
#231=DIRECTION('',(0.,1.,0.));
#232=DIRECTION('',(0.,0.,1.));
#233=DIRECTION('center_axis',(0.,-1.,0.));
#234=DIRECTION('ref_axis',(1.,0.,0.));
#235=DIRECTION('',(-1.,0.,0.));
#236=DIRECTION('',(1.,0.,0.));
#237=DIRECTION('center_axis',(0.,0.,1.));
#238=DIRECTION('ref_axis',(1.,0.,0.));
#239=DIRECTION('center_axis',(0.,0.,1.));
#240=DIRECTION('ref_axis',(1.,0.,0.));
#241=DIRECTION('center_axis',(0.,0.,-1.));
#242=DIRECTION('ref_axis',(-1.,0.,0.));
#243=DIRECTION('',(-1.,0.,0.));
#244=DIRECTION('',(0.,1.,0.));
#245=DIRECTION('',(1.,0.,0.));
#246=DIRECTION('',(0.,-1.,0.));
#247=DIRECTION('center_axis',(1.,0.,0.));
#248=DIRECTION('ref_axis',(0.,-1.,0.));
#249=DIRECTION('',(0.,0.,-1.));
#250=DIRECTION('',(0.,-1.,0.));
#251=DIRECTION('',(0.,0.,-1.));
#252=DIRECTION('center_axis',(0.,-1.,0.));
#253=DIRECTION('ref_axis',(-1.,0.,0.));
#254=DIRECTION('',(-1.,0.,0.));
#255=DIRECTION('',(0.,0.,-1.));
#256=DIRECTION('center_axis',(0.,1.,0.));
#257=DIRECTION('ref_axis',(1.,0.,0.));
#258=DIRECTION('',(0.,0.,-1.));
#259=DIRECTION('',(1.,0.,0.));
#260=DIRECTION('center_axis',(-1.,0.,0.));
#261=DIRECTION('ref_axis',(0.,1.,0.));
#262=DIRECTION('',(0.,1.,0.));
#263=DIRECTION('center_axis',(0.,0.,-1.));
#264=DIRECTION('ref_axis',(-1.,0.,0.));
#265=CARTESIAN_POINT('',(0.,0.,0.));
#266=CARTESIAN_POINT('Origin',(-50.,50.,0.));
#267=CARTESIAN_POINT('',(-50.,0.,0.));
#268=CARTESIAN_POINT('',(-50.,50.,0.));
#269=CARTESIAN_POINT('',(-50.,0.,0.));
#270=CARTESIAN_POINT('',(-50.,0.,60.));
#271=CARTESIAN_POINT('',(-50.,0.,0.));
#272=CARTESIAN_POINT('',(-50.,50.,60.));
#273=CARTESIAN_POINT('',(-50.,0.,60.));
#274=CARTESIAN_POINT('',(-50.,50.,0.));
#275=CARTESIAN_POINT('Origin',(0.,50.,0.));
#276=CARTESIAN_POINT('',(0.,50.,0.));
#277=CARTESIAN_POINT('',(-50.,50.,0.));
#278=CARTESIAN_POINT('',(0.,50.,60.));
#279=CARTESIAN_POINT('',(-50.,50.,60.));
#280=CARTESIAN_POINT('',(0.,50.,0.));
#281=CARTESIAN_POINT('Origin',(0.,0.,0.));
#282=CARTESIAN_POINT('',(0.,0.,0.));
#283=CARTESIAN_POINT('',(0.,50.,0.));
#284=CARTESIAN_POINT('',(0.,0.,60.));
#285=CARTESIAN_POINT('',(0.,50.,60.));
#286=CARTESIAN_POINT('',(0.,0.,0.));
#287=CARTESIAN_POINT('Origin',(-50.,0.,0.));
#288=CARTESIAN_POINT('',(0.,0.,0.));
#289=CARTESIAN_POINT('',(0.,0.,60.));
#290=CARTESIAN_POINT('Origin',(-25.,25.,60.));
#291=CARTESIAN_POINT('Origin',(-25.,25.,0.));
#292=CARTESIAN_POINT('Origin',(-23.5577721452552,23.3940061183818,40.));
#293=CARTESIAN_POINT('',(-10.,10.,40.));
#294=CARTESIAN_POINT('',(-37.1155442905104,10.,40.));
#295=CARTESIAN_POINT('',(-16.7788860726276,10.,40.));
#296=CARTESIAN_POINT('',(-37.1155442905104,36.7880122367635,40.));
#297=CARTESIAN_POINT('',(-37.1155442905104,16.6970030591909,40.));
#298=CARTESIAN_POINT('',(-10.,36.7880122367635,40.));
#299=CARTESIAN_POINT('',(-30.3366582178828,36.7880122367635,40.));
#300=CARTESIAN_POINT('',(-10.,30.0910091775726,40.));
#301=CARTESIAN_POINT('Origin',(-10.,36.7880122367635,60.));
#302=CARTESIAN_POINT('',(-10.,36.7880122367635,20.));
#303=CARTESIAN_POINT('',(-10.,36.7880122367635,60.));
#304=CARTESIAN_POINT('',(-10.,10.,20.));
#305=CARTESIAN_POINT('',(-10.,36.7880122367635,20.));
#306=CARTESIAN_POINT('',(-10.,10.,60.));
#307=CARTESIAN_POINT('Origin',(-10.,10.,60.));
#308=CARTESIAN_POINT('',(-37.1155442905104,10.,20.));
#309=CARTESIAN_POINT('',(-10.,10.,20.));
#310=CARTESIAN_POINT('',(-37.1155442905104,10.,60.));
#311=CARTESIAN_POINT('Origin',(-37.1155442905104,36.7880122367635,60.));
#312=CARTESIAN_POINT('',(-37.1155442905104,36.7880122367635,20.));
#313=CARTESIAN_POINT('',(-37.1155442905104,36.7880122367635,60.));
#314=CARTESIAN_POINT('',(-37.1155442905104,36.7880122367635,20.));
#315=CARTESIAN_POINT('Origin',(-37.1155442905104,10.,60.));
#316=CARTESIAN_POINT('',(-37.1155442905104,10.,20.));
#317=CARTESIAN_POINT('Origin',(-23.5577721452552,23.3940061183818,20.));
#318=UNCERTAINTY_MEASURE_WITH_UNIT(LENGTH_MEASURE(0.01),#322,
'DISTANCE_ACCURACY_VALUE',
'Maximum model space distance between geometric entities at asserted c
onnectivities');
#319=UNCERTAINTY_MEASURE_WITH_UNIT(LENGTH_MEASURE(0.01),#322,
'DISTANCE_ACCURACY_VALUE',
'Maximum model space distance between geometric entities at asserted c
onnectivities');
#320=(
GEOMETRIC_REPRESENTATION_CONTEXT(3)
GLOBAL_UNCERTAINTY_ASSIGNED_CONTEXT((#318))
GLOBAL_UNIT_ASSIGNED_CONTEXT((#322,#323,#324))
REPRESENTATION_CONTEXT('','3D')
);
#321=(
GEOMETRIC_REPRESENTATION_CONTEXT(3)
GLOBAL_UNCERTAINTY_ASSIGNED_CONTEXT((#319))
GLOBAL_UNIT_ASSIGNED_CONTEXT((#322,#323,#324))
REPRESENTATION_CONTEXT('','3D')
);
#322=(
LENGTH_UNIT()
NAMED_UNIT(*)
SI_UNIT(.MILLI.,.METRE.)
);
#323=(
NAMED_UNIT(*)
PLANE_ANGLE_UNIT()
SI_UNIT($,.RADIAN.)
);
#324=(
NAMED_UNIT(*)
SI_UNIT($,.STERADIAN.)
SOLID_ANGLE_UNIT()
);
#325=SHAPE_DEFINITION_REPRESENTATION(#326,#327);
#326=PRODUCT_DEFINITION_SHAPE('',$,#329);
#327=SHAPE_REPRESENTATION('',(#202),#320);
#328=PRODUCT_DEFINITION_CONTEXT('part definition',#333,'design');
#329=PRODUCT_DEFINITION('AVoid','AVoid',#330,#328);
#330=PRODUCT_DEFINITION_FORMATION('',$,#335);
#331=PRODUCT_RELATED_PRODUCT_CATEGORY('AVoid','AVoid',(#335));
#332=APPLICATION_PROTOCOL_DEFINITION('international standard',
'automotive_design',2009,#333);
#333=APPLICATION_CONTEXT(
'Core Data for Automotive Mechanical Design Process');
#334=PRODUCT_CONTEXT('part definition',#333,'mechanical');
#335=PRODUCT('AVoid','AVoid',$,(#334));
#336=PRESENTATION_STYLE_ASSIGNMENT((#337));
#337=SURFACE_STYLE_USAGE(.BOTH.,#340);
#338=SURFACE_STYLE_RENDERING_WITH_PROPERTIES($,#344,(#339));
#339=SURFACE_STYLE_TRANSPARENT(0.);
#340=SURFACE_SIDE_STYLE('',(#341,#338));
#341=SURFACE_STYLE_FILL_AREA(#342);
#342=FILL_AREA_STYLE('',(#343));
#343=FILL_AREA_STYLE_COLOUR('',#344);
#344=COLOUR_RGB('',0.423529411764706,0.768627450980392,0.854901960784314);
ENDSEC;
END-ISO-10303-21;
